Radiohead - Just Chords & Tabs

 

Just Chords & Tabs

Radiohead Chords & Tabs

Version: 4 Type: Bass Tab 0 ratings
1 star 2 stars 3 stars 4 stars 5 stars
comments

Just Bass Tab

   
JUST - RADIOHEAD


>From the album: The Bends
Tab BY: 	Paul Simpson (paul_the_bass_guy@hotmail.com)

Hello, firstly I would just like to say congratulations to the person
who previously tabbed this song because everything was incorrect
except the song structure.

Secondly I would like to say that my "The Bends" CD is out of tune so
I have to tune my bass up about 1/4 of a semitone. This may be true with
yours, so just bear that in mind (in case it sounds a bit off).

The majority of this song is in C minor.
Alrighty, here we go:

INTRO:
G----------------------------------------
D---------------------------------3------
A--3--3-3-3--5--6--6-6-6----5-3-5--------
E---------------------------------------5
   1  + a 2  +  3  + a 4    1 + 2 + 3   4

G----------------------------------------
D----------------------------------------
A--3--3-3-3--5--6--6-6-6----5-3----------
E-------------------------------3-1-----1
   1  + a 2  +  3  + a 4    1 + 2 + 3   4

VERSE:

G--------------------------------------------------------
D--------------------------------------------------------
A-------------------------------------------------10-12\-
E-5----5----5-5-5---4----4----4-4-4----/11-0-11-13-------
  1    2    3 + 4   1    2    3 + 4     1  +  2 +3 +  4


G--------------------------------------------------------
D--------------------------------------------------------
A-------------------------------------6-8-6--------------
E-5----5----5-5-5---4----4----4-4-4----------6--8-10\----
  1    2    3 + 4   1    2    3 + 4   1 + 2  +3 +  4


BRIDGE:

G----------------------------------------------------
D----------------------------------------------------
A----------------------------------------3-----------
E-5------5-7-8--7--5-------------4---4-6-----6---4--/
  1      2 t l3 +  4             1   2 t l3  +   4
           r e
           p t


G----------------------------
D-----0-------4--------------
A-10--------------4----------
E--------3-----------2--0--1-
  1   +  2    3   +  4  +  1

CHORUS:
		  (play this twice)
G---------------|.-------------------------------------------------.|
D---------------|.-------------------------------------------------.|
A---------------|-3--3-3-3--3-----------------------------------0h1-|
E-rest rest rest|-------------2--2-2-2--2--1--1-1-1---1-0-1--1h2----|
   2   3     4    1  + a 2  + 3  + a 4  +  1  + a 2   3 e +  4 e+ a

Then play intro riff again

Then play verse again

Then play Bridge again

Then play chorus again

Then play intro riff again (but last F is played an octave higher
at A string Fret 8).

Then play this:

INTERLUDE:
G--------------------------------------------------
D--------------------------------------------------
A-----7--7-7-7---5--5-5-5---4--4-4-4--/--10---12\--
E--------------------------------------------------
      1  + a 2   3  + a 4   1  + a 2      3    4
[ Tab from: http://www.guitartabs.cc/tabs/r/radiohead/just_btab_ver_4.html ]
G-------------------------------------------------------------
D-------------------------------------------------------------
A-----7--7-7-7---5--5-5-5---4--4-4-4--/--10-10-10-10-10-10-10\
E-------------------------------------------------------------
      1  + a 2   3  + a 4   1  + a 2      3  e  +  a  4  e  +

G----------------------------------------------------------
D----------------------------------------------------------
A-------------------------------------6-8-6----------------
E-5----5----5-5-5---4----4----4-4-4----------6--8-10\------
  1    2    3 + 4   1    2    3 + 4   1 + 2  +3 +  4

G------------------------------------------------------
D------------------------------------------------------
A------------------------------------------------------
E-5----5----5-5-5---4----4----4-4-4---3-3-3-3-2-2-2-2-1
  1    2    3 + 4   1    2    3 + 4   1 + 2 + 3 + 4 + 1

Then play chorus twice
Then play Intro riff 2 times

Then this:

ENDING:

G---------------------------------------------------
D---------------------------------------------------
A---3--3-3-3-1-1-1-1-1-1-1--0-0-0--1/--3h6--3h6--3h6
E---------------------------------------------------
    1  2 + 3 e + a 4 e + a  1 + 2  +   3 e  + a4 e +

G---------------------------------------------------
D--------------------------------------5-3-----5-3--
A--1h3--3-3-3-1-1-1-1-1-1-1--0-0-0--1/-----6-3-----6
E---------------------------------------------------
   1 e  2 + 3 e + a 4 e + a  1 + 2  +  3 e + a 4 e +

G---------------------------------------------------
D---------------------------------------------------
A--1h3--3-3-3-1-1-1-1-1-1-1--0-0-0--1/--3h6--3h6--3h6
E---------------------------------------------------
   1 e  2 + 3 e + a 4 e + a  1 + 2  +   3 e  + a4 e +

G---------------------------------------------------
D---------------------------------------------------
A---3--3-3-3-1-1-1-1-1-1-1-/-8\------3/------8\-----
E---------------------------------------------------
    1  2 + 3 e + a 4 e + a   1 + 2  +   3 e  + a4 e +

G---------------------------------------------------
D---------------------------------------------------
A--1h3--3-3-3-1-1-1-1-1-1-1--0-0-0--1/--3h6--3h6--3h6
E---------------------------------------------------
   1 e  2 + 3 e + a 4 e + a  1 + 2  +   3 e  + a4 e +

G---------------------------------------------------
D---------------------------------------------------
A--1h3--3-3-3-1-1-1-1-1-1-1--0-0-0--/--8\-----------
E---------------------------------------------------
   1 e  2 + 3 e + a 4 e + a  1 + 2  +   3 e  + a4 e +

Now just repeat the 2 lines above over a couple more times until
the end of the song.

Yes, I think this is a tremendously vivacious, immensely gratifying
and uncompromisingly immaculate song so it deserves an accurate
tabulation. This tab is correct to my best knowledge.

Alrighty then, have fun with this song.
If you want to e-mail me or anything please do:

paul_the_bass_guy@hotmail.com

Ok, bye :)
Comments