Radiohead - Inside My Head Chords & Tabs

 

Inside My Head Chords & Tabs

Radiohead Chords & Tabs

Version: 2 Type: Tab 0 ratings
1 star 2 stars 3 stars 4 stars 5 stars
comments

Inside My Head Tab

   
"Inside My Head(live)" by Radiohead
Transcribed by Steven McGovern

Verse (This is basically an adlib song when it comes to the srumming)
e----------------------------
B-1-1-x-1-2-3-x-x-3-2-1------
G-2-2-x-2-3-4-x-x-4-3-2------
D-----x-------x-x------------
A----------------------------
E----------------------------

Chorus

E  Dsus2  E Dsus2

Solo:
       .25                .25.25.25               pluck with fret finger
e-------------------------------------------------------------------
B-------------------------------------------------------------------
G--2----/----2-----/5--3--2-2/\/\/\/\/\--2p0------------------x-x\--
D----------------------------------------------2--0h2--0h2----x-x\--
A-------------------------------------------------------------------
E-------------------------------------------------------------------
[ Tab from: http://www.guitartabs.cc/tabs/r/radiohead/inside_my_head_tab_ver_2.html ]
                 .5                                 trill----------
e------------------------------------------------------------------------
B------------------------------------------------------------------------
G--9-p7h9p7h9p7-9/\7h9p7h9/11--11p9h11/14--12h14p12-12(14)------------x-x
D---------------------------------------------------------------------x-x
A------------------------------------------------------------------------
E------------------------------------------------------------------------

    .5               .5
e------------------------------------------------------------------------------
B------------------12-------------x--/16-19-20-x-19\-x-/16-19-20-x-19\--/17-x-x
G--14/\p12h14p12---14/\p12h14p12--x------------x-----x-----------x----------x-x
D----------------------------------------------------x-----------x------------x
A------------------------------------------------------------------------------
E------------------------------------------------------------------------------

                                                             trill--------
e------------------------------------------------------------------------------
B--19\--x/-x-x-x\--17-20-17h20p17-17h20p17-20p17-20p17-20p17-17(20)--------20\-
G----------x-x-----------------------------------------------------------------
D----------x-x-----------------------------------------------------------------
A------------------------------------------------------------------------------
E------------------------------------------------------------------------------

-Steven McGovern
Comments