Radiohead - India Rubber Chords & Tabs

 

India Rubber Chords & Tabs

Radiohead Chords & Tabs

Version: 1 Type: Bass Tab 0 ratings
1 star 2 stars 3 stars 4 stars 5 stars
comments

India Rubber Bass Tab

   
Artist: Radiohead
Song: India Rubber
Album: Fake Plastic Trees single (1995)
Tuning: D-A-D-G
Notes:
~ - Let Ring
\ - Slide Down
/ - Slide Up


Intro:
G|------------------------------------|
D|------------------------------------|
A|------------------------------------|
D|-7-7--7---7-7--7---7-7--7---7-7--7--|

G|---------------------------------------|------|
D|---------------------------------------|-Rest-|
A|---------------------------------------|------|
D|-7-7--7---7-7--7---7-7--7---7-7--7--7~-|------|



Verse 1:
G|---------------------------------------|------|
D|---------------------------------------|-Rest-|
A|---------------------------------------|------|
D|-7-7--7---7-7--7---7-7--7---7-7--7--7\-|------|

G|------------------------------------|
D|------------------------------------|
A|------------------------------------|
D|-7-7--7---7-7--7---7-7--7---7-7--7--|


Chorus:
G|---------------------------------------------|
D|---------------------------------------------|
A|-\2--2--2-2-2--------------------------------|
D|--------------4-4-2--2--2-2-2-2--7--7--7-7-6-|
[ Tab from: http://www.guitartabs.cc/tabs/r/radiohead/india_rubber_btab.html ]
G|--------------------------------------------|
D|--------------------------------------------|
A|-------------2--2--2-2-2--------------------|
D|-4--4--4-4-4-------------4-4-2--2--2-2-2-2--|

G|----------------|
D|----------------|
A|--3~---5~---0~--|
D|----------------|


Verse 2:
G|-------------------------------------|------|
D|-------------------------------------|-Rest-|
A|-------------------------------------|------|
D|-/7-7--7---7-7--7---7-7--7---7-7--7\-|------|

G|-------------------------------------------------|
D|-------------------------------------------------|
A|--------------------------------------12-11-9-7/-|
D|-12\7-7--7---7-7--7---7-7--7---7-7--7------------|
     ^Play quietly and lightly pluck the string as you slide

Chorus:
G|---------------------------------------------|
D|---------------------------------------------|
A|-\2--2--2-2-2--------------------------------|
D|--------------4-4-2--2--2-2-2-2--7--7--7-7-6-|

G|--------------------------------------------|
D|--------------------------------------------|
A|-------------2--2--2-2-2--------------------|
D|-4--4--4-4-4-------------4-4-2--2--2-2-2-2--|

G|---------------------|
D|---------------------|
A|--3~---5~---3~---5~--|
D|---------------------|


Outro: Play til fade out
G|------------------------------------|
D|------------------------------------|
A|------------------------------------|
D|-0-0--0---0-0--0---0-0--0---0-0--0--|
Comments