Radiohead - I Will Chords & Tabs

 

I Will Chords & Tabs

Radiohead Chords & Tabs

Version: 1 Type: Tab 1 rating
1 star 2 stars 3 stars 4 stars 5 stars
comments

I Will Tab

   
#----------------------------------PLEASE NOTE---------------------------------#
#This file is the author's own work and represents their interpretation of the #
#song. You may only use this file for private study, scholarship, or research. #
#------------------------------------------------------------------------------##

                                     I WILL
                            As recorded by Radiohead
                     (From the 2002 Album HAIL TO THE THIEF)

Words by Tom Yorke

Music by Radiohead
Transcribed by sebasdlrp@hotmail.com

          G#                   C#m                   A                C#sus2/Ab
      4 6 6 5 4 4          x 4 6 6 5 4          5 7 7 6 5 5          4 6 6 6 4 4

          F#                    E
      2 4 4 3 2 2          0 2 2 1 0 0

Gtr I (E A D G B E) - 'Untitled'

    Q=69
       G#              C#m             A               C#G#s2/Ab
   4/4
    Gtr I
    Q  E E Q  E E   Q  E Q  E E E   Q  E E Q  E E   Q  E Q  Q E   7x
||-----4------4---|----4----4---4-|----5------5---|----4-4----4---||
||o----4------4---|----5----5---5-|----5------5---|----4-4--4----o||
||-----5------5---|----6----6---6-|----6------6---|----6-5--------||
||-----6------6---|----6----6---6-|----7------7---|----6-6--------||
||o----6------6-6-|-4--4-4--4-4-4-|----7------7---|----6-6-------o||
||--4--4-4-4--4---|---------------|-5--5-5-5--5-5-|-4--4-4--------||


     G#                 A      F#       G#     E        F#     G#
  Q  E E E E E E     Q  E E Q  E E   Q  E E Q  E E   Q  E E Q  E E
|----4-----4---4-||-----5------2---|----4------0---|----2------4-----||
|----4-----4---4-||o----5------2---|----4------0---|----2------4----o||
|----5-----5---5-||-----6------3---|----5------1---|----3------5-----||
|----6-----6---6-||-----7------4---|----6------2---|----4------6-----||
|----6-----6---6-||o----7------4---|----6------2---|----4------6----o||
|-4--4-4-4-4-4-4-||--5--5-5-2--2-2-|-4--4-4-0--0-0-|-2--2-2-4--4-4---||

[ Tab from: http://www.guitartabs.cc/tabs/r/radiohead/i_will_tab.html ]
  Q  E E Q  E E   Q  E E Q  E E
|----5------2---|----4------0---|
|----5------2---|----4------0---|
|----6------3---|----5------1---|
|----7------4---|----6------2---|
|----7------4---|----6------2---|
|-5--5-5-2--2-2-|-4--4-4-0--0-0-|


    F#
  E E E E Q  E E   Q  E E Q  E E   +E  E q   H
|---2---2----0---|----2------4---|-----4----^4----|
|---2---2----0---|----2------4---|-----4----^5----|
|---3---3----1---|----3------5---|-----5----^6----|
|---4---4----2---|----4------6---|-----6----^6----|
|---4---4----2---|----4------6---|-----6----^4----|
|-2-2-2-2-0--0-0-|-2--2-2-4--4-4-|-(4)-4-4--------|


Duration Legend
---------------
W - whole; H - half; Q - quarter; E - 8th; S - 16th; T - 32nd; X - 64th; a - acciaccatura
+ - note tied to previous; . - note dotted; .. - note double dotted
Uncapitalized letters represent notes that are staccato (1/2 duration)
Irregular groupings are notated above the duration line
Duration letters will always appear directly above the note/fret number it represents the
duration for.  Duration letters with no fret number below them represent rests.  Multi-
bar rests are notated in the form Wxn, where n is the number of bars to rest for.  Low
melody durations appear below the staff

Tablature Legend
----------------
 h   - hammer-on
 p   - pull-off
 b   - bend
 pb  - pre-bend
 r   - bend release (if no number after the r, then release immediately)
 /\  - slide into or out of (from/to "nowhere")
 s   - legato slide
 S   - shift slide
  - natural harmonic
[n]  - artificial harmonic
n(n) - tapped harmonic
 ~   - vibrato
 tr  - trill
 T   - tap
 TP  - trem. picking
 PM  - palm muting
\n/  - tremolo bar dip; n = amount to dip
 \n  - tremolo bar down
 n/  - tremolo bar up
/n\  - tremolo bar inverted dip
 =   - hold bend; also acts as connecting device for hammers/pulls
   - volume swell (louder/softer)
 x   - on rhythm slash represents muted slash
 o   - on rhythm slash represents single note slash

Misc Legend
-----------
 |  - bar
||  - double bar
||o - repeat start
o|| - repeat end
*|  - double bar (ending)
 :  - bar (freetime)
 $  - Segno
 &  - Coda
Tempo markers -  = BPM(8/16=s8/s16), where s8 = swing 8ths, s16 = swing 16ths


***************************************************************************************
* Generated using Power Tab Editor by Brad Larsen - http://powertab.guitarnetwork.org *
***************************************************************************************
Comments