Radiohead - I Might Be Wrong Chords & Tabs

 

I Might Be Wrong Chords & Tabs

Radiohead Chords & Tabs

Version: 8 Type: Tab 0 ratings
1 star 2 stars 3 stars 4 stars 5 stars
comments

I Might Be Wrong Tab

   
                           I might be wrong                                 

E
B
G
D
A
D

                                                                         
---------------|------------------|------------------|------------------|
---------------|------------------|------------------|------------------|
---------------|------------------|------------------|------------------|
---------------|------------------|------------------|------------------|
---------------|------------------|------------------|------------------|
---------------|------------------|------------------|------------------|


                                                                 
------------------|------------------|--------------------------|
------------------|------------------|--------------------------|
------------------|------------------|--------------------------|
------------------|------------------|-----0------0-----0----0--|
------------------|------------------|--------------------------|
------------------|------------------|--0-----3/5/--3-----------|


                                                       
--------------------------|---------------------------|
--------------------------|---------------------------|
--------------------------|---------------------------|
-----0------0-----0----0--|-----0------0-----0-----0--|
--------------------------|---------------------------|
--0-----3/5/--3-----------|--0-----3/5/--3-------3----|


                                                        
---------------------------|---------------------------|
---------------------------|---------------------------|
---------------------------|---------------------------|
-----0------0-----0-----0--|-----0------0-----0-----0--|
---------------------------|---------------------------|
--0-----3/5/--3-------3----|--0-----3/5/--3------3-----|


                                                        
---------------------------|---------------------------|
---------------------------|---------------------------|
---------------------------|---------------------------|
-----0------0-----0-----0--|-----0------0-----0-----0--|
---------------------------|---------------------------|
--0-----3/5/--3------3-----|--0-----3/5/--3------3-----|


                                                        
---------------------------|---------------------------|
---------------------------|---------------------------|
---------------------------|---------------------------|
-----0------0-----0-----0--|-----0------0-----0-----0--|
---------------------------|---------------------------|
--0-----3/5/--3------3-----|--0-----3/5/--3------3-----|


                                                        
---------------------------|---------------------------|
---------------------------|---------------------------|
---------------------------|---------------------------|
-----0------0-----0-----0--|-----0------0-----0-----0--|
---------------------------|---------------------------|
--0-----3/5/--3------3-----|--0-----3/5/--3------3-----|


                                                       
---------------------------|--------------------------|
---------------------------|--------------------------|
---------------------------|--------------------------|
-----0------0-----0-----0--|-----0-----0-----0-----0--|
---------------------------|--------------------------|
--0-----3/5/--3------3-----|--8/----3----3------2-----|


                                                       
--------------------------|---------------------------|
--------------------------|---------------------------|
--------------------------|---------------------------|
-----0-----0-----0-----0--|-----0------0-----0-----0--|
--------------------------|---------------------------|
--8/----3----3------2-----|--0-----3/5/--3------3-----|


                                                        
---------------------------|---------------------------|
---------------------------|---------------------------|
---------------------------|---------------------------|
-----0------0-----0-----0--|-----0------0-----0-----0--|
---------------------------|---------------------------|
--0-----3/5/--3------3-----|--0-----3/5/--3------3-----|


                                                        
---------------------------|---------------------------|
---------------------------|---------------------------|
---------------------------|---------------------------|
-----0------0-----0-----0--|-----0------0-----0-----0--|
---------------------------|---------------------------|
--0-----3/5/--3------3-----|--0-----3/5/--3------3-----|


                                                        
---------------------------|---------------------------|
---------------------------|---------------------------|
---------------------------|---------------------------|
-----0------0-----0-----0--|-----0------0-----0-----0--|
---------------------------|---------------------------|
--0-----3/5/--3------3-----|--0-----3/5/--3------3-----|


                                                       
---------------------------|--------------------------|
---------------------------|--------------------------|
---------------------------|--------------------------|
-----0------0-----0-----0--|-----0-----0-----0-----0--|
---------------------------|--------------------------|
--0-----3/5/--3------3-----|--8/----3----3------2-----|


                                                       
--------------------------|---------------------------|
--------------------------|---------------------------|
--------------------------|---------------------------|
-----0-----0-----0-----0--|-----0------0-----0-----0--|
--------------------------|---------------------------|
--8/----3----3------2-----|--0-----3/5/--3------3-----|


                                                        
---------------------------|---------------------------|
---------------------------|---------------------------|
---------------------------|---------------------------|
-----0------0-----0-----0--|-----0------0-----0-----0--|
---------------------------|---------------------------|
--0-----3/5/--3------3-----|--0-----3/5/--3------3-----|


                                                        
---------------------------|---------------------------|
---------------------------|---------------------------|
---------------------------|---------------------------|
-----0------0-----0-----0--|-----0------0-----0-----0--|
---------------------------|---------------------------|
--0-----3/5/--3------3-----|--0-----3/5/--3------3-----|


                                                        
---------------------------|---------------------------|
---------------------------|---------------------------|
---------------------------|---------------------------|
-----0------0-----0-----0--|-----0------0-----0-----0--|
---------------------------|---------------------------|
--0-----3/5/--3------3-----|--0-----3/5/--3------3-----|


                                                        
---------------------------|---------------------------|
---------------------------|---------------------------|
---------------------------|---------------------------|
-----0------0-----0-----0--|-----0------0-----0-----0--|
---------------------------|---------------------------|
--0-----3/5/--3------3-----|--0-----3/5/--3------3-----|


                                                      
---------------------------|-------------------------|
---------------------------|-------------------------|
---------------------------|-------------------------|
-----0------0-----0-----0--|-----8-----8-----7-------|
---------------------------|-------------------------|
--0-----3/5/--3------3-----|--5-----5----3------3----|


                                                        
---------------------------|---------------------------|
---------------------------|---------------------------|
---------------------------|---------------------------|
-----10-----10-------------|-----0-----------0------0--|
---------------------------|---------------------------|
--7------7-----5-----3p0---|--5-----5/7/-5------3-0----|


                                                         
----------------------------|---------------------------|
----------------------------|---------------------------|
----------------------------|---------------------------|
-----0------------15--------|------14-----------7-------|
----------------------------|---------------------------|
--5-----5/-7--12------12----|--10------10----3-----3----|


                                                        
---------------------------|---------------------------|
---------------------------|---------------------------|
---------------------------|---------------------------|
-----0-----------0------0--|-----0-----------0------0--|
---------------------------|---------------------------|
--5-----5/7/-5------3-0----|--5-----5/7/-5------3-0----|


                                                        
---------------------------|---------------------------|
---------------------------|---------------------------|
---------------------------|---------------------------|
-----0------0-----0-----0--|-----0------0-----0-----0--|
---------------------------|---------------------------|
--0-----3/5/--3------3-----|--0-----3/5/--3------3-----|


                                                        
---------------------------|---------------------------|
---------------------------|---------------------------|
---------------------------|---------------------------|
-----0------0-----0-----0--|-----0------0-----0-----0--|
---------------------------|---------------------------|
--0-----3/5/--3------3-----|--0-----3/5/--3------3-----|


                                                        
---------------------------|---------------------------|
---------------------------|---------------------------|
---------------------------|---------------------------|
-----0------0-----0-----0--|-----0------0-----0-----0--|
---------------------------|---------------------------|
--0-----3/5/--3------3-----|--0-----3/5/--3------3-----|


                                                        
---------------------------|---------------------------|
---------------------------|---------------------------|
---------------------------|---------------------------|
-----0------0-----0-----0--|-----0------0-----0-----0--|
---------------------------|---------------------------|
--0-----3/5/--3------3-----|--0-----3/5/--3------3-----|


                                                      
--------------------------|--------------------------|
--------------------------|--------------------------|
--------------------------|--------------------------|
-----0-----0-----0-----0--|-----0-----0-----0-----0--|
--------------------------|--------------------------|
--8/----3----3------3-----|--8/----3----3------3-----|


                                                        
---------------------------|---------------------------|
---------------------------|---------------------------|
---------------------------|---------------------------|
-----0------0-----0-----0--|-----0------0-----0-----0--|
---------------------------|---------------------------|
--0-----3/5/--3------3-----|--0-----3/5/--3------3-----|


                                                        
---------------------------|---------------------------|
---------------------------|---------------------------|
---------------------------|---------------------------|
-----0------0-----0-----0--|-----0------0-----0-----0--|
---------------------------|---------------------------|
--0-----3/5/--3------3-----|--0-----3/5/--3------3-----|

[ Tab from: http://www.guitartabs.cc/tabs/r/radiohead/i_might_be_wrong_tab_ver_8.html ]
                                                        
---------------------------|---------------------------|
---------------------------|---------------------------|
---------------------------|---------------------------|
-----0------0-----0-----0--|-----0------0-----0-----0--|
---------------------------|---------------------------|
--0-----3/5/--3------3-----|--0-----3/5/--3------3-----|


                                                        
---------------------------|---------------------------|
---------------------------|---------------------------|
---------------------------|---------------------------|
-----0------0-----0-----0--|-----0------0-----0-----0--|
---------------------------|---------------------------|
--0-----3/5/--3------3-----|--0-----3/5/--3------3-----|


                                                        
---------------------------|---------------------------|
---------------------------|---------------------------|
---------------------------|---------------------------|
-----0------0-----0-----0--|-----0------0-----0-----0--|
---------------------------|---------------------------|
--0-----3/5/--3------3-----|--0-----3/5/--3------3-----|


                                                        
---------------------------|---------------------------|
---------------------------|---------------------------|
---------------------------|---------------------------|
-----0------0-----0-----0--|-----0------0-----0-----0--|
---------------------------|---------------------------|
--0-----3/5/--3------3-----|--0-----3/5/--3------3-----|


                                                        
---------------------------|---------------------------|
---------------------------|---------------------------|
---------------------------|---------------------------|
-----0------0-----0-----0--|-----0------0-----0-----0--|
---------------------------|---------------------------|
--0-----3/5/--3------3-----|--0-----3/5/--3------3-----|


                                                      
-------------------------|---------------------------|
-------------------------|---------------------------|
-------------------------|---------------------------|
-----8-----8-----7-------|-----10-----10-------------|
-------------------------|---------------------------|
--5-----5----3------3----|--7------7-----5-----3p0---|


                                                         
---------------------------|----------------------------|
---------------------------|----------------------------|
---------------------------|----------------------------|
-----0-----------0------0--|-----0------------15--------|
---------------------------|----------------------------|
--5-----5/7/-5------3-0----|--5-----5/-7--12------12----|


                                                        
---------------------------|---------------------------|
---------------------------|---------------------------|
---------------------------|---------------------------|
------14-----------7-------|-----0-----------0------0--|
---------------------------|---------------------------|
--10------10----3-----3----|--5-----5/7/-5------3-0----|


                                                        
---------------------------|---------------------------|
---------------------------|---------------------------|
---------------------------|---------------------------|
-----0-----------0------0--|-----0------0-----0-----0--|
---------------------------|---------------------------|
--5-----5/7/-5------3-0----|--0-----3/5/--3------3-----|


                                                        
---------------------------|---------------------------|
---------------------------|---------------------------|
---------------------------|---------------------------|
-----0------0-----0-----0--|-----0------0-----0-----0--|
---------------------------|---------------------------|
--0-----3/5/--3------3-----|--0-----3/5/--3------3-----|


                                                        
---------------------------|---------------------------|
---------------------------|---------------------------|
---------------------------|---------------------------|
-----0------0-----0-----0--|-----0------0-----0-----0--|
---------------------------|---------------------------|
--0-----3/5/--3------3-----|--0-----3/5/--3------3-----|


                                                        
---------------------------|---------------------------|
---------------------------|---------------------------|
---------------------------|---------------------------|
-----0------0-----0-----0--|-----0------0-----0-----0--|
---------------------------|---------------------------|
--0-----3/5/--3------3-----|--0-----3/5/--3------3-----|


                                                        
---------------------------|---------------------------|
---------------------------|---------------------------|
---------------------------|---------------------------|
-----0------0-----0-----0--|-----0------0-----0-----0--|
---------------------------|---------------------------|
--0-----3/5/--3------3-----|--0-----3/5/--3------3-----|


                                                        
---------------------------|---------------------------|
---------------------------|---------------------------|
---------------------------|---------------------------|
-----0------0-----0-----0--|-----0------0-----0-----0--|
---------------------------|---------------------------|
--0-----3/5/--3------3-----|--0-----3/5/--3------3-----|


                                                        
---------------------------|---------------------------|
---------------------------|---------------------------|
---------------------------|---------------------------|
-----0------0-----0-----0--|-----0------0-----0-----0--|
---------------------------|---------------------------|
--0-----3/5/--3------3-----|--0-----3/5/--3------3-----|


                                                        
---------------------------|---------------------------|
---------------------------|---------------------------|
---------------------------|---------------------------|
-----0------0-----0-----0--|-----0------0-----0-----0--|
---------------------------|---------------------------|
--0-----3/5/--3------3-----|--0-----3/5/--3------3-----|


                                                        
---------------------------|---------------------------|
---------------------------|---------------------------|
---------------------------|---------------------------|
-----0------0-----0-----0--|-----0------0-----0-----0--|
---------------------------|---------------------------|
--0-----3/5/--3------3-----|--0-----3/5/--3------3-----|


                                                        
---------------------------|---------------------------|
---------------------------|---------------------------|
---------------------------|---------------------------|
-----0------0-----0-----0--|-----0------0-----0-----0--|
---------------------------|---------------------------|
--0-----3/5/--3------3-----|--0-----3/5/--3------3-----|


                                                        
---------------------------|---------------------------|
---------------------------|---------------------------|
---------------------------|---------------------------|
-----0------0-----0-----0--|-----0------0-----0-----0--|
---------------------------|---------------------------|
--0-----3/5/--3------3-----|--0-----3/5/--3------3-----|


                                                                  
---------------------------|
---------------------------|
---------------------------|
-----0------0-----0-----0--|
---------------------------|
--0-----3/5/--3------3-----|



                                                           
------------------|------------------|--------------------|
------------------|------------------|--------------------|
------------------|------------------|--------------------|
------------------|------------------|--15----------------|
------------------|------------------|--12----------------|
------------------|------------------|--12----------------|


                                                     
-----------------------------|----------------------|
-----------------------------|----------------------|
--------------------9--------|----------------------|
------15---------------10----|------15--------------|
--12------12----10-----------|--12--12--------------|
--12------------10-----------|--12--12--------------|


                                                                               
-----------------------------|-------------------|-------------------------|
-----------------------------|-------------------|-------------------------|
-----------------------------|-------------------|-------------------------|
---------15------------14/---|--12---------------|--------12----------10---|
-12--12------------10--------|--8----------------|-----8-----------7-------|
-12------------10------------|--8----------------|--8-----------7----------|


                                                              
---------------------|------------------|--------------------|
---------------------|------------------|--------------------|
------------7--------|------------------|--------------------|
---------------------|------------------|--15----------------|
---------------------|------------------|--12----------------|
--3/---5----5--------|------------------|--12----------------|


                                                     
-----------------------------|----------------------|
-----------------------------|----------------------|
--------------------9--------|----------------------|
------15---------------10----|------15--------------|
--12------12----10-----------|--12--12--------------|
--12------------10-----------|--12--12--------------|


                                                                               
------------------------------|------------------|------------------------|
------------------------------|------------------|------------------------|
------------------------------|------------------|------------------------|
----------15------------14/---|--12--------------|--------12----------10--|
--12--12------------10--------|--8---------------|-----8-----------7------|
--12------------10------------|--8---------------|--8-----------7---------|


                                                             
---------------------|-------------------|------------------|
---------------------|-------------------|------------------|
------------7--------|-------------------|------------------|
---------------------|-------------------|------------------|
---------------------|-------------------|------------------|
--3/---5----5--------|--0----------------|------------------|


                                                        
---------------------------|---------------------------|
---------------------------|---------------------------|
---------------------------|---------------------------|
-----0------0-----0-----0--|-----0------0-----0-----0--|
---------------------------|---------------------------|
--0-----3/5/--3------3-----|--0-----3/5/--3------3-----|


                                                        
---------------------------|---------------------------|
---------------------------|---------------------------|
---------------------------|---------------------------|
-----0------0-----0-----0--|-----0------0-----0-----0--|
---------------------------|---------------------------|
--0-----3/5/--3------3-----|--0-----3/5/--3------3-----|


                                                                            
---------------------------|---------------------------|-----------------|
---------------------------|---------------------------|-----------------|
---------------------------|---------------------------|-----------------|
-----0------0-----0-----0--|-----0------0-----0-----0--|-----------------|
---------------------------|---------------------------|-----------------|
--0-----3/5/--3------3-----|--0-----3/5/--3------3-----|--0--------------|


                    
------------------||
------------------||
------------------||
------------------||
------------------||
------------------||
Comments