Radiohead - I Might Be Wrong Chords & Tabs

 

I Might Be Wrong Chords & Tabs

Radiohead Chords & Tabs

Version: 7 Type: Tab 0 ratings
1 star 2 stars 3 stars 4 stars 5 stars
comments

I Might Be Wrong Tab

Artist   'Radiohead'
song     'I Might be Wrong'

I heard this song first on jools hollands Radiohead special and dicided to tab it.
played with a dropped d tuning.

Riff 1

e-------------------------------------------------------------------------------------|
B-------------------------------------------------------------------------------------|
G-------------------------------------------------------------------------------------|
D----0----------0---0-----------------------------------------------------------------|
A-------------------------------------------------------------------------------------|
D-0-----3/5--3-----3------------------------------------------------------------------|

Riff 2

e-------------------------------------------------------------------------------------|
B-------------------------------------------------------------------------------------|
G-------------------------------------------------------------------------------------|
D----0----0---0-----0-----------------------------------------------------------------|
A-------------------------------------------------------------------------------------|
D-8-----3---3----2--------------------------------------------------------------------|

Riff 3

e-----------------------------------------------------------------------------------------------------------------------------------|
B-----------------------------------------------------------------------------------------------------------------------------------|
G-----------------------------------------------------------------------------------------------------------------------------------|
D----0-----0----0----0-----0------0------0----0----0---------0----------0----------0-----0------0------0------0------0-----0-----0--|
A-----------------------------------------------------------------------------------------------------------------------------------|
D-8-----8----7----7-----7-----10-----10----8----8-----8---5-----5/7--5-----5h3--5-----7-----15-----15-----14-----14-----3-----3-----|

Riff 4

e-------------------------------------------------------------------------------------|
B-------------------------------------------------------------------------------------|
G-------------------------------------------------------------------------------------|
D----0----------0----------0----------0-----------------------------------------------|
A-------------------------------------------------------------------------------------|
D-5-----5/7--5-----5h3--5-----5/7--5-----7p5------------------------------------------|
[ Tab from: http://www.guitartabs.cc/tabs/r/radiohead/i_might_be_wrong_tab_ver_7.html ]
Riff 5

e-------------------------------------------------------------------------------------|
B-------------------------------------------------------------------------------------|
G-------------------------------------------------------------------------------------|
D----0----------0-----0---------------------------------------------------------------|
A-------------------------------------------------------------------------------------|
D-3-----3/5--3-----2------------------------------------------------------------------|

Riff 6

e--------------------------------------------------------------------------------------------|
B--------------------------------------------------------------------------------------------|
G--------------------------------------------------------------------------------------------|
D----0----------0-----0-----0----------0-----0-----0----------0-----0-----0----------0-----0-|
A--------------------------------------------------------------------------------------------|
D-0-----3/8--7-----5-----0-----3/7--5-----3-----0-----3/5--3-----2-----0-----3/5--3-----2----|

Riff 7

Not 100% sure about this part but it sounds good anyway

e---------------------------------------------------------------------------------------------------------|
B-------6-----------------------5----------3--------------3--------1--------------------------------------|
G-----7-----7---7------7----------5------3-----3---3--------3--------2--------3----------------3----------|
D---7----------7-----7---7----5--------3----------3-----3--------2----------5-----5---5------5-----5---5--|
A-5----------------5--------3--------1----------------1--------0----------5----------5-----5----------5---|
D-----------------------------------------------------------------------5----------------5----------------|

e---------------------------------------------------------------------------------------------------------|
B-------6-----------------------5----------3--------------3--------1--------------------------------------|
G-----7-----7---7------7----------5------3-----3---3--------3--------2------------------------------------|
D---7----------7-----7---7----5--------3----------3-----3--------2----------------------------------------|
A-5----------------5--------3--------1----------------1--------0------------------------------------------|
D---------------------------------------------------------------------------------------------------------|

Riff 7 ends by going straight into riff 4 and then riff 5.


Any comments or suggestions email me at sph1_2000@yahoo.co.uk
Comments