Radiohead - I Might Be Wrong Chords & Tabs

 

I Might Be Wrong Chords & Tabs

Radiohead Chords & Tabs

Version: 4 Type: Tab 0 ratings
1 star 2 stars 3 stars 4 stars 5 stars
comments

I Might Be Wrong Tab

this is just the intro, its not very long but i looked at jonny's hands when he
played it and it looked similar to the way my tab instructs. It sounds great and
its fun to play too!
[ Tab from: http://www.guitartabs.cc/tabs/r/radiohead/i_might_be_wrong_tab_ver_4.html ]
-----------------
-----------------
-----------------
-----0----0--0--0 repeat 3times
-----------------
---0--3/4--3-----


-----------------
-----------------
-----------------
-----0----0--0--0
-----------------
---0--3/4---3--3-

then repeat the whole thing a few times, until Thom enters with 'i might be wrong'
then i dont know
'i might be wrong'
'i might be wrong'
'i could have sworn i saw a light coming on'
Comments