Radiohead - Hunting Bears Chords & Tabs

 

Hunting Bears Chords & Tabs

Radiohead Chords & Tabs

Version: 4 Type: Tab 0 ratings
1 star 2 stars 3 stars 4 stars 5 stars
comments

Hunting Bears Tab

Author/Artist: Radiohead
Title: Hunting Bears
Album: Amnesiac
Transcribed by: cliff mccarten
Email: biophaedia@home.com

only a devoted fan such as myself would take it upon themself to make such a ridiculous tab. the song 
that hard,
but its just that it is literally a 2 minute solo. its pretty much accurate except for that one fast part, 
i
added a few open "D" strings, doing the job of the synth in the background.

you know the drill: s- slide, b- bend, p- pulloff, h- hammer on
[ Tab from: http://www.guitartabs.cc/tabs/r/radiohead/hunting_bears_tab_ver_4.html ]
*let the open "D" string ring, don't mute it.
e|---------------------------------------------------------5---5-----------5-3-----5-----5---|
B|-----------------------------------------------------5-6---5---------5-6-------5-----5-----|
G|-2s5---7---0-2s5-7p5---2---2s5---7---0-2s5-7p5---2-------------?????-----------------------|
D|-----0---------------0---------0---------------0-----------------------------0-----0-----0-|
A|-------------------------------------------------------------------------------------------|
E|-------------------------------------------------------------------------------------------|
repeat that section twice, then end with

e|---------|
B|---------|
G|-2s5---7-|
D|-----0---|
A|---------|
E|---------|


fun fun. hope you enjoyed it,
		cliff
		biophaedia@home.com
		http://biophaedia.tripod.com
Comments