Radiohead - Hunting Bears Chords & Tabs

 

Hunting Bears Chords & Tabs

Radiohead Chords & Tabs

Version: 2 Type: Tab 1 rating
1 star 2 stars 3 stars 4 stars 5 stars
comments

Hunting Bears Tab

Title: Hunting Bears
Author: Radiohead
Album: Amnesiac

None of the tabs here for this song are quite right, so I thought I’d have a go. I think its ok, but try 
it and see for yourself.
Let the open D string ring throught.

e-------------------------------------------------------------------------------------------------------
B-------------------------------------------------------------------------------------------------------
G------0h2------7---------0h2----5s7s5--------2-----------0h2--------7---------0h2-----5s7s5--------2---
D--0--------0---------0------------------0-----------0----------0---------0--------------------0--------
A-------------------------------------------------------------------------------------------------------
E-------------------------------------------------------------------------------------------------------

[ Tab from: http://www.guitartabs.cc/tabs/r/radiohead/hunting_bears_tab_ver_2.html ]
e-----------------5----------------5------------------------5----------------------5-----------5--------
B----------5-6-----------------5----------------5h6---8-8-------8---------------6-----------5-----------
G-------------------------------------------------------------------------------------------------------
D----0---------------0----0---------------0---------------------------------0------------0------------0-
A-------------------------------------------------------------------------------------------------------
E-------------------------------------------------------------------------------------------------------

And repeat once again – use this last note, the open D string as the opening note of the second sequence 
i.e let it ring and play the 0h2 on the G string (ha ha!) straight over the top, instead of playing it 
twice.
	It finishes with:

G------0h2-------7--------------------------------------------------------------------------------------
D------------0------------------------------------------------------------------------------------------

Listen to the CD for the correct timing, and for when to run your finger lightly up and down the G string 
(innuendos getting worse, sorry!) to get that cool scratchy noise. 
See You Soon. Charlie
Comments