Radiohead - High And Dry Chords & Tabs

 

High And Dry Chords & Tabs

Radiohead Chords & Tabs

Version: 4 Type: Tab 0 ratings
1 star 2 stars 3 stars 4 stars 5 stars
comments

High And Dry Tab

--------------------------------------------------------------------
			    High and Dry - Radiohead
--------------------------------------------------------------------

Intro/Verse

    Slide all chords
e|-4--4----4---4-------0----0----0-------4----4--|
B|-0--0----0---0-------0----0----0-------0----0--|
G|-1--1----1---1-------3----3----3-------3----3--|
D|-2--2----2---2-------4----4----4-------4----4--|
A|-2--2----2---2-------4----4----4-------4----4--|
E|-0--0----0---0-------0----0----0-------0----0--|
      
e|--4----4------0-----0----0-------0----0----0------0-|
B|--0----0------0-----0----0-------0----0----0------0--|
G|--3----3------6-----6----6-------6----6----6------1--|  Repeat 2x for Intro
D|--4----4------7-----7----7-------7----7----7------2--|  Repeat 4x for Verse
A|--4----4------7-----7----7-------7----7----7------2--|
E|--0----0------0-----0----0-------0----0----0------0--|

[ Tab from: http://www.guitartabs.cc/tabs/r/radiohead/high_and_dry_tab_ver_4.html ]
  Chorus
e|-0-------0------0------0----------------------------|
B|-0-------0------0------0----------------------------|
G|-1-------2------6------1----------------------------|     Play 2x
D|-2-------4------7------2----------------------------|
A|-2--------------7------2----------------------------|
E|-0--------------0------0----------------------------|


   Solo
e|--------------------------------------------------------------------------|
B|--------------------------------------------------------------------------|
G|-9--9--8--9--9--8--9--9--8--9--11--9--8--9--9--8--9-----------------------|
D|--------------------------------------------------------11-9--------------|
A|--------------------------------------------------------------------------|
E|--------------------------------------------------------------------------|

e|--------------------------------------------------------------------------|
B|--------------------------------------------------------------------------|
G|-9--9--8--9--9--8--9--9--8--9--11-----------------------------------------|
D|--------------------------------------------11--9--------7--9-------------|
A|-----------------------------------------------------11---------9--7------|
E|--------------------------------------------------------------------------|



Order:
 Intro
Verse 1
Chorus 
Verse 2
Chorus
Solo
Bridge (bridge is done by lead guitar)
Chorus
Comments