Radiohead - High And Dry Chords & Tabs

 

High And Dry Chords & Tabs

Radiohead Chords & Tabs

Version: 1 Type: Bass Tab 0 ratings
1 star 2 stars 3 stars 4 stars 5 stars
comments

High And Dry Bass Tab

Radiohead - High and Dry
Album: The Bends
Transcribed by Marcos Prieto

Notation legend:

+...-... = is the rhythm of the song. '+' is the drum bass, and '-' the acoustic snare. 
       ~ = let ring.
       / = slide down.
       \ = slide up.

 in the 1st. chorus the bass doesn't sound perfectly, so you can play it like the other chorus.  

Verse 1:
+-+.+...-...+-+.+...-...+-+.+...-...+-+.+...-...+-+.
G|--------------------------------------------------
D|--4~------4-4-7~------7-7-2~------2-2---------2-2-
A|-------------------------------------------------- x2
E|--------------------------------------0~----------

+-+.+...-...+-+.+...-...+-+.+...-...+-+.+...-...+-+.
G --------------------------------------------------
D --4~------4-4-7~------7-7-2~------2-2-2~------2-2-
A --------------------------------------------------
E --------------------------------------------------

+-+.+...-...+-+.+...-...+-+.+...-...+-+.+...-...+-+.
G --------------------------------------------------|
D --4~------4-4-7~------7-7-2~------2---------------|
A ------------------------------------2-------------|
E --------------------------------------0~------0---|

Pre-chorus:
+-+.+...-...+-+.+...-...+-+.+...-...+-+.+...-...+-+.
G|--------------------------------------------------
D|--4~------4-6-7~------7-6-2~------2---2~------2-6-
A|------------------------------------2------------- 
E|--------------------------------------------------

+-+.+...-...+-+.+...-...+-+.+...-...+-+.+...- break
G --------------------------------------------------|
D --4~------4-9-7~------7-6-------------4/7-4-------|
A --------------------------------------------7-4---| 
E --------------------------0~--------------------7-|


Chorus 1:  
    +.+.-...+.+.-...+.+.-...+.+.-...+.+.-...+.+.-...+.+.-.-.+.+.-...  
G|-------------------------------------------------------------------
D|--4-4-4---4-4---467-7-7---7-7---762-2-2---2-2-----2---2---2-2---26-
A|---------4---------------7---------------2------2---2--------------
E|-------------------------------------------------------------------

-...+.+.-...+.+.-...+.+.-...+.+.-...+.+.-...+.+.-...+.+.-...+ break  
G -------------------------------------------------------------------|
D --4-4-4---4-4-4-6-7~~-------------2-------2-2-----2-------/4-2-----|
A ---------4--------------------------------------2--------------4-2-|
E -------------------------------------------------------------------|
  

Verse 2:
    +...-...+-+.+...-...+-+.+...-...+-+.+...-...+-+.
G|--------------------------------------------------
D|--4~------4-4-7~------7-7-2~------2-2---------2-2-
A|-------------------------------------------------- x2
E|--------------------------------------0~----------

+-+.+...-...+-+.+...-...+-+.+...-...+-+.+...-...+-+.
A --------------------------------------------------|
D --4~------4-4-7~------7-7-2~------2-2-------------|
A --------------------------------------------------|
E --------------------------------------0~------0---|
[ Tab from: http://www.guitartabs.cc/tabs/r/radiohead/high_and_dry_btab.html ]
Pre-chorus. 
 
Chorus 2:  
     +.+.-...+.+.-...+.+.-...+.+.-...+.+.-...+.+.-...+.+.-.-.+.+.-... 
G|-------------------------------------------------------------------
D|------4---4-4---------7---7-7---------2---2-2---------2---2-2---26-
A|---------4------4--------7------7--------2------2---2--------------
E|--2-2-------------5-5-------------0-0-------------0---------------- 

-...+.+.-...+.+.-...+.+.-...+.+.-...+.+.-...+.+.-...+.+.-.-.+.+.-...  
G -------------------------------------------------------------------
D ------4---4-4---4-----7---7-7---------2---2-2---------2---2-2------
A ---------4---------------7------7--------2------2---2---------2-0--
E --2-2-------------5-5-------------0-0-------------0---------------- 

-...+.+.-...+.+.-...+.+.-...+.+.-...+.+.-...+.+.-...+.+.-.-.+.+.-...  
G -------------------------------------------------------------------
D ------4---4-4---------7---7-7---------2---2-2---------2---2-2---2--
A ---------4------4--------7------7--------2------2---2--------------
E --2---------------5---------------0---------------0----------------

-...+.+.-...+.+.-...+.+.-...+.+.-...+.+.-...+.+.-...+.+.-.-.+.+.-...
G -------------------------------------------------------------------|
D ------4---4-4---------7---7-7---------2---2-2---------2---2-2---2--|
A ---------4------4--------7------7--------2------2---2---------2----|
E --2---------------5---------------0---------------0----------------| 

Verse 3:
+-+.+...-...+-+.+...-...+-+.+...-...+-+.+...-...+-+.
G|--------------------------------------------------
D|--4~----------7~----------2~----------------------
A|-------------------------------------------------- x2
E|--------------------------------------------------

+-+.+...-...+-+.+...-...+-+.+...-...+-+.+...-...+-+.
G --------------------------------------------------|
D --4~----------7~----------2-2-2-2-2-2-2-2-2-2-2---|
A --------------------------------------------------|
E -----------------------------------------------\0-|
			     fade in_______________>	

chorus 3:
    +.+.-...+.+.-...+.+.-...+.+.-...+.+.-...+.+.-...+.+.-.-.+.+.-... 
G|-------------------------------------------------------------------
D|------4---4-4--------7----7-7---------2---2-2---------2---2-2---26-
A|---------4------4--------7------7--------2------2---2--------------
E|--2-2-------------5-5-------------0-0-------------0---------------- 

-...+.+.-...+.+.-...+.+.-...+.+.-...+.+.-...+.+.-...+.+.-.-.+.+.-...
G -------------------------------------------------------------------
D ------4---4-4--------7----7-7---------2---2-2---------2---2-2------
A ---------4------4--------7------7--------2------2---2---------2-0--
E --2-2-------------5-5-------------0-0-------------0---------------- 

-...+.+.-...+.+.-...+.+.-...+.+.-...+.+.-...+.+.-...+.+.-.-.+.+.-... 
G -------------------------------------------------------------------
D ------4---4-4---4-----7---7-7---7-----2---2-2---------2---2-2---2--
A ---------4---------------7---------------2------2---2--------------
E --2-2-------------5-5-------------0-0-------------0----------------

-...+.+.-...+.+.-...+.+.-...+.+.-...+.+.-...+.+.-...+.+.-.-.+.+.-...
G -------------------------------------------------------------------|
D ------4---4-4---4-7~--------------2~-------------------------------|
A ---------4---------------------------------------------------------|
E --2-2--------------------------------------------------------------|  






Comments