Radiohead - Go To Sleep Chords & Tabs

 

Go To Sleep Chords & Tabs

Radiohead Chords & Tabs

Version: 3 Type: Tab 0 ratings
1 star 2 stars 3 stars 4 stars 5 stars
comments

Go To Sleep Tab

   
"Go To Sleep"
Radiohead
from "Hail to the Thief"
tabbed by arlen b, 04/06/03
website: http://www.geocities.com/kingoftheeskimos
notes: there are actually 3 (or more) guitars at work in the main verse,
but i'm just putting the two main riffs that i hear. the third guitar is 
basically just adding minor lead riffs based on the main chord proggression,
but i can't be bothered to try to differentiate between the different parts
and tab them out. if someone is desparate to know each individual guitar part,
make a request, i might give it a try. but for now, this'll be fine...

standard tuning

chords used:
   G    Bb   C
e--3----1----3---------------------------------------------------------
B--3----3----5---------------------------------------------------------
G--0----3----5---------------------------------------------------------
D--0----3----5---------------------------------------------------------
A--2----1----3---------------------------------------------------------
E--3-------------------------------------------------------------------


intro/verse (guitar 1):
     G
e----3-----------------------------------------------------------------
B----3----3---3---3---3------------------------------------------------
G----0----0---0---0---0------------------------------------------------
D----0----0---0---0---0------------------------------------------------
A----2--1---0---3---1--------------------------------------------------
E-/3-3-----------------------------------------------------------------
[ Tab from: http://www.guitartabs.cc/tabs/r/radiohead/go_to_sleep_tab_ver_3.html ]
verse (guitar 2):
     G
e----3----6---5---8---6------------------------------------------------
B----3----6---5---8---6------------------------------------------------
G----0-----------------------------------------------------------------
D----0-----------------------------------------------------------------
A----2-----------------------------------------------------------------
E--3-3--6---5---8---6--------------------------------------------------
something for the rag and bone man
over my dead body... and so on

chorus:
Bb        C           Bb           C
i'm gonna go to sleep and let this wash all over me

post chorus:
G                      Bb      C      G
we don't really want a monster taking over... and so on

lead:
   G    Bb   C
e----------------------------------------------------------------------
B----------------------------------------------------------------------
G----------------------------------------------------------------------
D--7-5-----------------------------------------------------------------
A-------8-7--3-5-------------------------------------------------------
E----------------------------------------------------------------------

chorus:
Bb        C                Bb      C       
i'm gonna go to sleep, and come to you as you sleep

and then another part:
G  Bb

with this lead:
e----/9----------------------------------------------------------------
B--8-----8-6-8---------------------------------------------------------
G----------------------------------------------------------------------
D----------------------------------------------------------------------
A----------------------------------------------------------------------
E----------------------------------------------------------------------

and then [G  Bb  C + lead] till fade out
Comments