Radiohead - Exit Music (for A Film) Chords & Tabs

 

Exit Music (for A Film) Chords & Tabs

Radiohead Chords & Tabs

Version: 2 Type: Tab 0 ratings
1 star 2 stars 3 stars 4 stars 5 stars
comments

Exit Music (for A Film) Tab

Exit Music (For a Film)                             


                                                                       Radiohead
Thom Yorke (Capo 2)



                                                        
E||-----0----0----0---0-0-0-|-----0----0----0-0-0-0-0--|
B||-----1----1----1---1-1-1-|-----1----1----1-0-0-0-3--|
G||-----2----2----2---2-2-2-|-----2----2----2-2-2-2-2--|
D||--2--2----2----2---2-2-2-|--2--2----2----2-2-2-2-2--|
A||--0----------------------|--0-----------------------|
E||-------------------------|--------------------------|


                                                                               
-----0----0----0---0-0-0-|-----0----0----0-0-0-0-0--|-----0----0----0---0-0-0-|
-----1----1----1---1-1-1-|-----1----1----1-0-0-0-3--|-----1----1----1---1-1-1-|
-----2----2----2---2-2-2-|-----2----2----2-2-2-2-2--|-----2----2----2---2-2-2-|
--2--2----2----2---2-2-2-|--2--2----2----2-2-2-2-2--|--2--2----2----2---2-2-2-|
--0----------------------|--0-----------------------|--0----------------------|
-------------------------|--------------------------|-------------------------|


                                                                              
-----0----0----0---0-0-0-|-----0----0----0---0-0-0-|-----0----0----0---0-0-0-|
-----1----1----1---1-1-1-|-----1----1----1---1-1-1-|-----0----0----0---0-0-0-|
-----2----2----2---2-2-2-|-----2----2----2---2-2-2-|-----1----1----1---1-1-1-|
--2--2----2----2---2-2-2-|--2--2----2----2---2-2-2-|-----2----2----2---2-2-2-|
--0----------------------|--0----------------------|--2----------------------|
-------------------------|-------------------------|--0----------------------|


                                                       
-----0----0----0---0-0-0-|-----0---0-0-0----0---0-0-0-|
-----1----1----1---1-1-1-|-----3---3-3-3----3---3-3-3-|
-----0----0----0---0-0-0-|-----2---2-2-2----2---2-2-2-|
-----2----2----2---2-2-2-|-----0---0-0-0-0--0---0-0-0-|
--3----------------------|----------------------------|
--3----------------------|--2-------------------------|


                                                                              
-----0----0----0---0-0-0-|-----0----0----0---0-0-0-|-----0----0----0---0-0-0-|
-----1----1----1---1-1-1-|-----0----0----0---0-0-0-|-----3----3----3---3-3-3-|
-----2----2----2---2-2-2-|-----1----1----1---1-1-1-|-----2----2----2---2-2-2-|
--2--2----2----2---2-2-2-|-----2----2----2---2-2-2-|--2--2----2----2---2-2-2-|
--0----------------------|--2----------------------|--0----------------------|
-------------------------|--0----------------------|-------------------------|


                                                                              
-----0----0----0---0-0-0-|-----0----0----0---0-0-0-|-----0----0----0---0-0-0-|
-----2----2----2---2-2-2-|-----1----1----1---1-1-1-|-----0----0----0---0-0-0-|
-----2----2----2---2-2-2-|-----2----2----2---2-2-2-|-----1----1----1---1-1-1-|
--2--2----2----2---2-2-2-|--2--2----2----2---2-2-2-|-----2----2----2---2-2-2-|
--0----------------------|--0----------------------|--2----------------------|
-------------------------|-------------------------|--0----------------------|


                                                       
-----0----0----0---0-0-0-|-----0---0-0-0----0---0-0-0-|
-----1----1----1---1-1-1-|-----3---3-3-3----3---3-3-3-|
-----0----0----0---0-0-0-|-----2---2-2-2----2---2-2-2-|
-----2----2----2---2-2-2-|-----0---0-0-0-0--0---0-0-0-|
--3----------------------|----------------------------|
--3----------------------|--2-------------------------|


                                                          
-----0---0-0-0----0---0-0-0-|-----0---0-0-0----0---0-0-0-|
-----1---1-1-1----1---1-1-1-|-----0---0-0-0----0---0-0-0-|
-----2---2-2-2----2---2-2-2-|-----1---1-1-1----1---1-1-1-|
--2--2---2-2-2-2--2---2-2-2-|-----2---2-2-2----2---2-2-2-|
--0------------0------------|--2------------2------------|
----------------------------|--0------------0------------|


                                                          
-----0---0-0-0----0---0-0-0-|-----0---0-0-0-0--0---0-0-0-|
-----3---3-3-3----3---3-3-3-|-----2---2-2-2-2--2---2-2-2-|
-----2---2-2-2----2---2-2-2-|-----2---2-2-2-2--2---2-2-2-|
--2--2---2-2-2-2--2---2-2-2-|--2--2---2-2-2-2--2---2-2-2-|
--0------------0------------|--0-------------------------|
----------------------------|----------------------------|


                                                                          
-----3---3-3-3----3---3-3-3-|-----3---3-3-3-|-----2---2-2-2----2---2-2-2-|
-----1---1-1-1----1---1-1-1-|-----1---1-1-1-|-----1---1-1-1----1---1-1-1-|
-----3---3-3-3----3---3-3-3-|-----3---3-3-3-|-----2---2-2-2----2---2-2-2-|
--0--0---0-0-0-0--0---0-0-0-|--0--0---0-0-0-|--0--0---0-0-0----0---0-0-0-|
----------------------------|---------------|----------------------------|
--3------------3------------|--3------------|--2------------2------------|


                                                                           
-----0---0-0-0----0---0-0-0-|--0--0-0----0-0-|-----0----0-0----0--0-0-0-0-|
-----0---0-0-0----1---1-1-1-|--0--0-0----3-3-|-----1----1-1----1--1-1-1-1-|
-----2---2-2-2----2---2-2-2-|--2--2-2----2-2-|-----2----2-2----2--2-2-2-2-|
--2--2---2-2-2-2--2---2-2-2-|--2--2-2-2--2-2-|--2--2----2-2-2--2--2-2-2-2-|
--0------------0------------|--0------0------|--0-----------0-------------|
----------------------------|----------------|----------------------------|


                                                                           
-----0---0-0-0----0--0-0-0-0-|-----3---3-3-3----3---3-3-3-|-----3---3-3-3-|
-----0---0-0-0----0--0-0-0-0-|-----1---1-1-1----1---1-1-1-|-----1---1-1-1-|
-----2---2-2-2----2--2-2-2-2-|-----3---3-3-3----3---3-3-3-|-----3---3-3-3-|
-----2---2-2-2----2--2-2-2-2-|--0--0---0-0-0-0--0---0-0-0-|--0--0---0-0-0-|
--2------------2-------------|----------------------------|---------------|
--0------------0-------------|--3------------3------------|--3------------|


                                                                           
-----2---2-2-2----2---2-2-2-|-----0---0-0-0----0---0-0-0-|--0--0-0----0-0-|
-----1---1-1-1----1---1-1-1-|-----0---0-0-0----1---1-1-1-|--0--0-0----3-3-|
-----2---2-2-2----2---2-2-2-|-----2---2-2-2----2---2-2-2-|--2--2-2----2-2-|
--0--0---0-0-0----0---0-0-0-|--2--2---2-2-2-2--2---2-2-2-|--2--2-2-2--2-2-|
----------------------------|--0------------0------------|--0------0------|
--2------------2------------|----------------------------|----------------|

[ Tab from: http://www.guitartabs.cc/tabs/r/radiohead/exit_music_for_a_film_tab_ver_2.html ]
                                                           
-----0----0-0----0--0-0-0-0-|-----0---0-0-0----0--0-0-0-0-|
-----1----1-1----1--1-1-1-1-|-----0---0-0-0----0--0-0-0-0-|
-----2----2-2----2--2-2-2-2-|-----2---2-2-2----2--2-2-2-2-|
--2--2----2-2-2--2--2-2-2-2-|-----2---2-2-2----2--2-2-2-2-|
--0-----------0-------------|--2------------2-------------|
----------------------------|--0------------0-------------|


                                                        
-----0---0-0-0----0---0-0-0-|-----0----0-0----0----0-0-|
-----0---0-0-0----0---0-0-0-|-----1----1-1----1----1-1-|
-----1---1-1-1----1---1-1-1-|-----2----2-2----2----2-2-|
-----2---2-2-2----2---2-2-2-|--2--2----2-2-2--2----2-2-|
--2------------2------------|--0-----------0-----------|
--0------------0------------|--------------------------|


                                                          
-----0----0-0----0--0-0-0-0-|-----0---0-0-0----0---0-0-0-|
-----0----0-0----0--0-0-0-0-|-----1---1-1-1----1---1-1-1-|
-----1----1-1----1--1-1-1-1-|-----0---0-0-0----0---0-0-0-|
-----2----2-2----2--2-2-2-2-|-----2---2-2-2----2---2-2-2-|
--2-----------2-------------|--3------------3------------|
--0-----------0-------------|--3------------3------------|


                                                          
-----0---0-0-0----0---0-0-0-|-----0---0-0-0----0---0-0-0-|
-----3---3-3-3----3---3-3-3-|-----1---1-1-1----1---1-1-1-|
-----2---2-2-2----2---2-2-2-|-----2---2-2-2----2---2-2-2-|
-----0---0-0-0----0---0-0-0-|--2--2---2-2-2-2--2---2-2-2-|
----------------------------|--0------------0------------|
--2------------2------------|----------------------------|


                                                         
-----0----0-0----0---0-0-0-|-----0---0-0-0----0---0-0-0-|
-----0----0-0----0---0-0-0-|-----3---3-3-3----3---3-3-3-|
-----1----1-1----1---1-1-1-|-----2---2-2-2----2---2-2-2-|
-----2----2-2----2---2-2-2-|--2--2---2-2-2-2--2---2-2-2-|
--2-----------2------------|--0------------0------------|
--0-----------0------------|----------------------------|


                                                          
-----0---0-0-0----0---0-0-0-|-----0---0-0-0----0---0-0-0-|
-----2---2-2-2----2---2-2-2-|-----1---1-1-1----1---1-1-1-|
-----2---2-2-2----2---2-2-2-|-----2---2-2-2----2---2-2-2-|
--2--2---2-2-2-2--2---2-2-2-|--2--2---2-2-2-2--2---2-2-2-|
--0------------0------------|--0------------0------------|
----------------------------|----------------------------|


                                                          
----------------------------|-----0---0-0-0----0---0-0-0-|
-----4---4-4-4----4---4-4-4-|-----0---0-0-0----0---0-0-0-|
-----4---4-4-4----4---4-4-4-|-----1---1-1-1----1---1-1-1-|
--4--4---4-4-4-4--4---4-4-4-|-----2---2-2-2----2---2-2-2-|
--2------------2------------|--2------------2------------|
----------------------------|--0------------0------------|


                                                          
----------------------------|----------------------------|
-----1---1-1-1----1---1-1-1-|-----1---1-1-1----1---1-1-1-|
-----2---2-2-2----2---2-2-2-|-----2---2-2-2----2---2-2-2-|
-----3---3-3-3----3---3-3-3-|-----3---3-3-3----3---3-3-3-|
--3------------3------------|--3------------3------------|
--1------------1------------|--1------------1------------|


                                                          
----------------------------|-----0---0-0-0----0---0-0-0-|
-----3---3-3-3----3---3-3-3-|-----0---0-0-0----0---0-0-0-|
-----3---3-3-3----3---3-3-3-|-----1---1-1-1----1---1-1-1-|
--3--3---3-3-3-3--3---3-3-3-|-----2---2-2-2----2---2-2-2-|
--1------------1------------|--2------------2------------|
----------------------------|--0------------0------------|


                                                          
-----0---0-0-0----0---0-0-0-|-----0---0-0-0----0---0-0-0-|
-----0---0-0-0----0---0-0-0-|-----1---1-1-1----1---1-1-1-|
-----1---1-1-1----1---1-1-1-|-----2---2-2-2----2---2-2-2-|
-----2---2-2-2----2---2-2-2-|--2--2---2-2-2-2--2---2-2-2-|
--2------------2------------|--0------------0------------|
--0------------0------------|----------------------------|


                                                          
-----0---0-0-0----0---0-0-0-|-----0---0-0-0----0---0-0-0-|
-----0---0-0-0----0---0-0-0-|-----1---1-1-1----1---1-1-1-|
-----1---1-1-1----1---1-1-1-|-----0---0-0-0----0---0-0-0-|
-----2---2-2-2----2---2-2-2-|-----2---2-2-2----2---2-2-2-|
--2------------2------------|--3------------3------------|
--0------------0------------|--3------------3------------|


                                                          
----------------------------|----------------------------|
-----3---3-3-3----3---3-3-3-|-----1---1-1-1----1---1-1-1-|
-----2---2-2-2----2---2-2-2-|-----2---2-2-2----2---2-2-2-|
--0--0---0-0-0-0--0---0-0-0-|--2--2---2-2-2-2--2---2-2-2-|
----------------------------|--0------------0------------|
--2------------1------------|----------------------------|


                                                          
----------------------------|-----0---0-0-0----0---0-0-0-|
-----0---0-0-0----0---0-0-0-|-----3---3-3-3----3---3-3-3-|
-----1---1-1-1----1---1-1-1-|-----2---2-2-2----2---2-2-2-|
-----2---2-2-2----2---2-2-2-|--2--2---2-2-2-2--2---2-2-2-|
--2------------2------------|--0------------0------------|
--0------------0------------|----------------------------|


                                                          
-----0---0-0-0----0---0-0-0-|----------------------------|
-----2---2-2-2----2---2-2-2-|-----1---1-1-1----1---1-1-1-|
-----2---2-2-2----2---2-2-2-|-----2---2-2-2----2---2-2-2-|
--2--2---2-2-2-2--2---2-2-2-|--2--2---2-2-2-2--2---2-2-2-|
--0------------0------------|--0------------0------------|
----------------------------|----------------------------|


                                                          
----------------------------|-----0---0-0-0----0---0-0-0-|
-----0---0-0-0----0---0-0-0-|-----3---3-3-3----3---3-3-3-|
-----1---1-1-1----1---1-1-1-|-----2---2-2-2----2---2-2-2-|
-----2---2-2-2----2---2-2-2-|--2--2---2-2-2-2--2---2-2-2-|
--2------------2------------|--0------------0------------|
--0------------0------------|----------------------------|


                                                          
-----0---0-0-0----0---0-0-0-|-----0---0-0-0----0---0-0-0-|
-----2---2-2-2----2---2-2-2-|-----1---1-1-1----1---1-1-1-|
-----2---2-2-2----2---2-2-2-|-----2---2-2-2----2---2-2-2-|
--2--2---2-2-2-2--2---2-2-2-|--2--2---2-2-2-2--2---2-2-2-|
--0------------0------------|--0------------0------------|
----------------------------|----------------------------|


                                                                               
-----0---0-0-0----0---0-0-0-|-----0---0-0-0----0---0-0-0-|--0----------------||
-----0---0-0-0----0---0-0-0-|-----3---3-3-3----3---3-3-3-|--2----------------||
-----1---1-1-1----1---1-1-1-|-----2---2-2-2----2---2-2-2-|--2----------------||
-----2---2-2-2----2---2-2-2-|--2--2---2-2-2-2--2---2-2-2-|--2----------------||
--2------------2------------|--0------------0------------|--0----------------||
--0------------0------------|----------------------------|-------------------||
Comments