Radiohead - Electioneering Chords & Tabs

 

Electioneering Chords & Tabs

Radiohead Chords & Tabs

Version: 1 Type: Bass Tab 0 ratings
1 star 2 stars 3 stars 4 stars 5 stars
comments

Electioneering Bass Tab

Electioneering, Radiohead.
Corrections by Nick Key

        intro/verse                                                     
G---------||-----7-------------------7---------------------||
D---------||----------------------------------------3h5-3--||
A--8h10-8-||--5--------3-----3---2-5--------3--------------||
E---------||-------3-5---3-5---3--------3-5---3-5---3------||
                                                                        
Verse 1
  Fig. 1 - 2x                        
||------------------------|
||------------------------|
||--5--5-----3-----3---2--|
||-------3-5---3-5---3----|
                                  
G---------------------------------------|
D---------------------------------------|
A---33--3333-3-5-7-8--------------------|
E---------------------55--5555-5-3-1-0--|
[ Tab from: http://www.guitartabs.cc/tabs/r/radiohead/electioneering_btab.html ]
Play whole verse two times, then fig. 1 two times
                                                                       
chorus  
Fig. 2 - 3x                                            
||---------------------------------|
||---------------------------------|
||--5-5-5--7-7-7--8-8-8--10-10-10--|
||---------------------------------|

(variations)
-----------------------------------------------|
-----------------------------------------------|
-10h12-12-12-10h12-12-10h12-10h12-12-10-8-7----|
-----------------------------------------------|
                                                                        
Intro to verse 2 - 2x
||---------------------------------------|
||---------------------------------------|
||--5--5-5-----3---2--5--5-5-----3-------|
||---------3-5---3-----------3-5---3-1---|

Verse 2
  2x
||------------------------|
||------------------------|
||--5-5--0-3-0-5-7-8-10---|
||------------------------|

G---------------------------------------|
D---------------------------------------|
A---33--3333-3-5-7-8--------------------|
E---------------------55--5557-5-3-1-0--|

Repeat verse two times
Fig. 1 two times
Chorus

After pause, play:
||---------------------------------|
||---------------------------------|
||--5-5-5--5-5-5--5-5-7-8-10-------|
||---------------------------------|
Lots of times - then screw around on D until end

Comments