Radiohead - Creep Chords & Tabs

 

Creep Chords & Tabs

Radiohead Chords & Tabs

Version: 2 Type: Tab 3 ratings
1 star 2 stars 3 stars 4 stars 5 stars
comments

Creep Tab

ARTIST: radio head
SONG: creep
ALBUM: pablo honey
SUBMITTED BY: james


INTRO....   G major open                    i thing A min bar chord

e--------------------------------------------------------------------
b----0-------0-----3-----0-----0--------4-----4----5----4------4-----
g------0------0------0-----0--------------4-----4----4----4----------
d--------0------0------0-----0--------------4-----4----4----4--------
a-------------------------------------2------------------------------
E-3------------------------------------------------------------------

      C major open                                   C min  bar chord

e-----0-------0-------1------0--------0---------------------------------------
b--------1-------1-------1------1---------------4------4-----------4-------4--
g-----------0-------0-------0------0---------------5------5-----------5-------
d-----------------------------------------------------5------5-----------5----
a-3------------------------------------------3-------------------3------------
E-----------------------------------------------------------------------------


CHORUS......
e-3-3-3-3-3-3-  ---------------------------------1-----------------------------
b-3-3-3-0-3-3------4-4-4-4-5-4-4-4-----1-1-1-1-1-1-1-1-----4-4-4-4-4-4---------
g-0-0-0-0-0-0------4-4-4-4-4-4-4-4-----0-0-0-0-0-0-0-0-----5-5-5-5-5-5---------
d-0-0-0-0-0-0------4-4-4-4-4-4-4-4-----2-2-2-2-2-2-2-2-----5-5-5-5-5-5---------
a-2-2-2-2-2-2------2-2-2-2-2-2-2-2-----3-3-3-3-3-3-3-3-----3-3-3-3-3-3---------
E-3-3-3-3-3-3------------------------------------------------------------------


[ Tab from: http://www.guitartabs.cc/tabs/r/radiohead/creep_tab_ver_2.html ]
                      then go straight back to the intro 
e10--------------8-------------------------------------------------------
b-x--let ring----x-------------------------------------------------------
g-7--------------5-------------------------------------------------------
d------------------------------------------------------------------------
a------------------------------------------------------------------------
E------------------------------------------------------------------------
after you do the intro again comes the crazy octives part
this requires very fast tremelo picking.


e-------------------------------------------------------------------------
b--10-10--10----------9--9-9----------------------------10-10-10----------
g--x--x---x--times 5--x--x-x--times 5---8-8 8-----------x--x--x--times 5--
d--7--7---7-----------6--6-6------------x-x-x-times 5---7--7--7-----------
a---------------------------------------6-6-6-----------------------------
E-------------------------------------------------------------------------


e----------------------------------------------------------------------
b--12-12-12-------------10--10--10--------------9-9-9------------------
g--x--x--x---times 5----x---x---x----times 5----x-x-x--times 5---------
d--9--9--9--------------7---7---7---------------6-6-6------------------
a----------------------------------------------------------------------
E----------------------------------------------------------------------


e----------------------------------------------------------------------
b----------------------------------------------------------------------
g---8-8------8---------------5-----------------------------------------
d---x-x------x--let ring-----x--let ring-------------------------------
a---6-6------6---------------3-----------------------------------------
E----------------------------------------------------------------------

then thats it you just play the intro one more time
and then end on a slowly strummed open G chord.

IF YOU WANT TO TELL ME ABOUT HOW MUCH I SUCK
OR IF YOU LIKE THIS TAB EMAIL ME AT-- rewcrew@kcnet.com

after all this tab only took me three hours at 4 in the morning.
Comments