Radiohead - Creep Chords & Tabs

 

Creep Chords & Tabs

Radiohead Chords & Tabs

Version: 1 Type: Tab 0 ratings
1 star 2 stars 3 stars 4 stars 5 stars
comments

Creep Tab

Song: Creep
Artist: Radiohead
Album: Pablo Honey

Intro/Verse with clean tone (let ring throughout)

e------------------------------------------------------
B-----------------------3-------------------3----------
G--------------4-----------4-----4--------------------8
D------5----5--------5--------5----------5-------------
A----5----5----------------------------------------9---
E--3--------------------------------------------7------

e------------------------------------------------------
B------------------------------------------------------
G------8-------9-------8---------8--------------9------
D----9-----------------9------------9------------------
A--9------9-------9-----------9-------------10------10-
E----------------------------------------8-------------

e------------------------------------------------------
B------------------------------------------------------
G------9-----------10---------9---------9-----------8--
D--10-----10----------10-------------------10----------
A------------10----------10---------10----------10-----
E------------------------------------------------------

e------------------------------------------------------
B------------------------------------------------------
G---------8-------------------8----------8-------------
D--10--------10------10----------10---------10---------
A-----10---------10-------10---------10---------10-----
E------------------------------------------------------

Pre-Chorus with Distortion

e------------------------------------------------------
B------------------------------------------------------
G------------------------------------------------------
D-------X-X--------------X-X--------------X-X-X--------
A-------X-X--------------X-X--------------X-X-X--------
E-------X-X--------------X-X--------------X-X-X--------
Make sure you dampen these strings on the 1st fret

Chorus with Distortion

e-----------------------------3--------3------3--------
B------------------------3----3--------3------3--------
G--4----4-----------4----4----4--------4------4--------
D--5----5-----------5----5----5--------5------5--------
A--5----5-----------5----5----5--------5------5--------
E--3----3-----------3----3----3--------3------3--------

e--3-----3---------------------------------------------
B--3-----3---------------------------------------------
G--4-----4---------------------------------------------
D--5-----5----X--X---9--------------9--9--9----9-------
A--5-----5----X--X---9--------------9--9--9----9-------
E--3-----3----X--X---7--------------7--7--7----7-------
[ Tab from: http://www.guitartabs.cc/tabs/r/radiohead/creep_tab.html ]
e------------------------------------------------------
B------------------------------------------------------
G-------------------------------------5--------------7-
D-----------------9--9--9----X--X----------------------
A-----------------9--9--9----X--X-----3--------------5-
E-----------------7--7--7----X--X----------------------
                                      (trem. picking)

e------------------------------------------------------
B------------------------------------------------------
G--7----------------8--------------10--10--10--10--10--
D------------------------------------------------------
A--5----------------6--------------8---8---8---8---8---
E------------------------------------------------------

e------------------------------------------------------
B------------------------------------------------------
G--10---------------12---------------------------------
D------------------------------------------------------
A--8----------------10---------------------------------
E------------------------------------------------------

Solo cont. from 2nd Chorus

e------------------------------------------------------
B------------------------------------------------------
G--12---------------12----------8-----8------------10--
D------------------------------------------------------
A--10---------------10----------6-----6-------------8--
E------------------------------------------------------
 (trem. picking)

e------------------------------------------------------
B------------------------------------------------------
G-10-----9-------------9-------------12--------12---8--
D------------------------------------------------------
A--8-----7-------------7-------------10--------10---6--
E------------------------------------------------------

e------------------------------------------------------
B------------------------------------------------------
G---8---------------17--------16-------------16-----16-
D------------------------------------------------------
A---6---------------15--------14-------------14-----14-
E------------------------------------------------------

e------------------------------------------------------
B------------------------------------------------------
G--12---12---12---11-------------11----14----14--------
D------------------------------------------------------
A--10---10---10----9--------------9----12----12--------
E------------------------------------------------------

e------------------------------------------------------
B------------------------------------------------------
G--14-----12---12---------------12---9-----9-----------
D------------------------------------------------------
A--12-----10---10---------------10---7-----7-----------
E------------------------------------------------------

e------------------------------------------------------
B------------------------------------------------------
G-------8--------------5-------------------------------
D------------------------------------------------------
A-------6--------------3-------------------------------
E------------------------------------------------------
  (let these two chords ring out)

That's all there is to it.
Any comments or requests send an e-mail to me at:
martynmc7@aol.com.
-Martyn
Comments