Radiohead - Climbing Up The Walls Chords & Tabs

 

Climbing Up The Walls Chords & Tabs

Radiohead Chords & Tabs

Version: 1 Type: Tab 0 ratings
1 star 2 stars 3 stars 4 stars 5 stars
comments

Climbing Up The Walls Tab

   
"Climbing Up The Walls" by Radiohead
From " Ok Computer"
Transcribed by Steven McGovern 

Intro:
e------------------------------------------------------------------------
B------------------------------------------------------------------------
G------------------------------------------------------------------------
D------------------------------------------------------------------------
A--------2---------------------------------------------------------------
E--7--3--0--3------------------------------------------------------------

Verse:
   Bm G  Em G
e--------0---------------------------------------------------------------
B--3-----0---------------------------------------------------------------
G--4-----0---------------------------------------------------------------
D--4-----2---------------------------------------------------------------
A--2-----2---------------------------------------------------------------
E-----3--0--3------------------------------------------------------------
This is the chords Thom plays but mostly only the top notes are really 
hit.

Chorus:
 [--- x2-----------]
   Em                 Em
e--0------------------0--------------------------------------------------
B--0------------------0--------------------------------------------------
G--0------------------0--------------------------------------------------
D--2--------------2---2--------------------------------------------------
A--2---------2-4------2--------------------------------------------------
E--0--2--3------------0--------------------------------------------------
[ Tab from: http://www.guitartabs.cc/tabs/r/radiohead/climbing_up_the_walls_tab.html ]
Riff1 (in second verse)
 [---------------------- x2 ------------------]
e------------------------------------------------------------------------
B------------------------------------------------------------------------
G------------------------------------------------------------------------
D--16-16-14-14-----------14-14-------------------------------------------
A--------------17-17-----------17-17-15-14---2---------------------------
E------------------------------------------------------------------------

Riff2
 [-------X2-----------------------]
e------------------------------------------------------------------------
B---------------------18-----19--\---------------------------------------
G-15-----16--\-----16----------------------------------------------------
D------------------------------------------------------------------------
A------------------------------------------------------------------------
E------------------------------------------------------------------------
 This bit is actually played on keyboards by Jon but this is it for 
guitar. The verse Bm G Em G chords above are strummed during this by 
Thom and Ed.

Riff3 X2
e------------------------------------------------------------------------
B------------------------------------------------------------------------
G-14h16-16-16-16-16-14h16-16-16----14h16-16-16-14h16-16-16-16-16-16-16---
D-------------------------------14---------------------------------------
A----------------------------------------------------------------------14
E------------------------------------------------------------------------

                 Em
e----------------0----------------------------------------------------
B----------------0----------------------------------------------------
G----------------0----------------------------------------------------
D----14----------2----------------------------------------------------
A-16-------------2----------------------------------------------------
E----------------0----------------------------------------------------
This riff Ed plays isnt too audible but its there.



-Steven 
Comments