Radiohead - Banana Co Chords & Tabs

 

Banana Co Chords & Tabs

Radiohead Chords & Tabs

Version: 1 Type: Tab 0 ratings
1 star 2 stars 3 stars 4 stars 5 stars
comments

Banana Co Tab

   
Radiohead - Banana Co.
CD - Street Spirit CD 2
Tabbed by LuckyJim (youdoittoyourself@hotmail.co.uk)


Intro/Verse
-----------

Guitar 1 (acoustic)

    Em                      C
E [-------0-0--0-0-0--0-0-0-0--0-0-0--0-0-0--0-0-0-]
B [----0--0-0--0-0-0--0-0-0-1--1-1-1--1-1-1--1-1-1-]
G [----0--0-0--0-0-0--0-0-0-0--0-0-0--0-0-0--0-0-0-]
D [----2--2-2--2-2-2--2-2-2-2--2-2-2--2-2-2--2-2-2-]
A [----2----2--2-2-2--2-2-2-3--3-3-3--3-3-3--3-3-3-]
E [-0----------------------------------------------]

    G         G/F#           G         G/F#
E [----3--3-3-3-3-3-3--3-3-3----3--3-3-3-3-3-3--3-3-3-]
B [----3--3-3-3-3-3-3--3-3-3----3--3-3-3-3-3-3--3-3-3-]
G [-0--0--0-0-0-0-0-0--0-0-0-0--0--0-0-0-0-0-0--0-0-0-]
D [-0--0--0-0-0-0-0-0--0-0-0-0--0--0-0-0-0-0-0--0-0-0-]
A [-2--2--2-2-x-x-x-x--x-x-x-2--2--2-2-x-x-x-x--x-x-x-]
E [-3--3--3-3-2-2-2-2--2-2-2-3--3--3-3-2-2-2-2--2-2-2-]


during second verse, guitar 2 comes in and plucks above
chords rather than strumming them


Chorus
------

    Cm                 G                  C
E [----------------------------------------------------------]
B [-4-----4-4-4--4-4-4-3-----3-3-3--3-3-3-4-----4-4-4--4-4-4-]
G [-5-----5-5-5--5-5-5-4-----4-4-4--4-4-4-5-----5-5-5--5-5-5-]
D [-5-----5-5-5--5-5-5-5-----5-5-5--5-5-5-5-----5-5-5--5-5-5-]
A [-3-----3-3-3--3-3-3-5-----5-5-5--5-5-5-3-----3-3-3--3-3-3-]
E [----------------------------------------------------------]


Guitar 1 (acoustic)
[ Tab from: http://www.guitartabs.cc/tabs/r/radiohead/banana_co_tab.html ]
E [-0--0--0--0--0--0--0--0--0--0--0--0--0--0--0--0--0--0-0--0-0-0-0-0-]
B [-0--0--0--0--0--0--0--0--0--0--0--0--0--0--0--0--1--1-0--0-1-1-0-1-]
G [-0--0--0--0--0--0--0--0--0--0--0--0--0--0--0--0--0--0-0--0-0-0-0-0-]
D [-5--5--5--5--5--5--5--5--5--5--5--5--2--2--2--2--2--2-2--2-2-2-2-2-]
A [-7--7--7--7--6--6--6--6--5--5--5--5--4--4--4--4--3--3-3--3-3-3-3-3-]
E [-------------------------------------------------------------------]


Guitar 2 (electric) - played over above riff

E [-3p0-0-3/6-5-5-0-12-0-10-0-8-7-7-0-6~-]
B [--------------------------------------]
G [--------------------------------------]
D [--------------------------------------]
A [--------------------------------------]
E [--------------------------------------]


Solo
----

E [-------------------------------------------------------------]
B [--------------------------------------------------12------12-]
G [-----------------------------7--9/11--11/12--14--------14----]
D [-------------------7--9--10----------------------------------]
A [-7~----5/7--9--10--------------------------------------------]
E [-------------------------------------------------------------]


E [--------------------------------------------------------------------------]
B [-13-12-12------12-13-12-12------12-13-12-------12-13-12-------12-13-12----]
G [-------14b16------------14b16---------14b16----------14b16----------14b16-]
D [--------------------------------------------------------------------------]
A [--------------------------------------------------------------------------]
E [--------------------------------------------------------------------------]


E [-------------------------15-12--------------14-10----------------------]
B [-12-13-12-------12-13-12-------12~-----12---------11----11-11-11-11-12-]
G [-------14b16-----------------------------------------------------------]
D [-----------------------------------------------------------------------]
A [-----------------------------------------------------------------------]
E [-----------------------------------------------------------------------]


play verse riff on guitar 1 behind solo.


p - pull off
/ - slide up
b - bend note
~ - vibrato
Comments