Radiohead - Anyone Can Play Guitar Chords & Tabs

 

Anyone Can Play Guitar Chords & Tabs

Radiohead Chords & Tabs

Version: 2 Type: Tab 0 ratings
1 star 2 stars 3 stars 4 stars 5 stars
comments

Anyone Can Play Guitar Tab

Author/Artist: radiohead
Title: anyone can play guitar
Album: pablo honey
Transcribed by: Justin Ells - the pretzel man
Email: thetwoheadedcat@aol.com

-0----12--12---0---12---------------------------------------------------------
-0----------------------------------------------------------------------------
-0----------------------------------------------------------------------------
-2----------------------------------------------------------------------------
-2----------------------------7--6----------10---9-------13--12---------------
-0----------------------------------------------------------------------------
  INTRO                                                                       

-0-----0/8---8---8\x\0-----/8-----x--8--\0------------------------------------
-0-----0/8---8---8\x\0-----/8-----x--8--\0------------------------------------
-0-----0/9---9---9\x\0-----/9-----x--9--\0------------------------------------
-2-----2/10--10-10\x\2-----/10----x-10--\2------------------------------------
-2-----2/10--10-10\x\2-----/10----x-10--\2------------------------------------
-0-----0/8---8---8\x\0-----/10----x--8--\0------------------------------------
 destiny destine protect me from above,hold my hand protect me from world     

-0--------0/x/8-------------8\x\0------------0/x/8----------------------------
-0--------0/x/8-------------8\x\0------------0/x/8----------------------------
-0--------0/x/9-------------9\x\0------------0/x/9----------------------------
-2--------2/x/10-----------10\x\2------------2/x/10---------------------------
-2--------2/x/10-----------10\x\2------------2/x/10---------------------------
-0--------0/x/8-------------8\x\0------------0/x/8----------------------------
 ADD                                                                          

------------------------------------------------------------------------------
---11--13-------------11--13---------13-11-13---------------------------------
-----------12-----------------12-----------------12---------------------------
------------------------------------------------------------------------------
------------------------------------------------------------------------------
------------------------------------------------------------------------------
       BRIDGE                                                                 

------------------------------------------------------------------------------
------------------------------------------------------------------------------
--11-12-14-12-11---9----11-12--14--16--16--16---------------------------------
------------------------------------------------------------------------------
--9--10-12-10-9----7----9--10--12--14--14--14---------------------------------
------------------------------------------------------------------------------
    CHORUS                                                                    
[ Tab from: http://www.guitartabs.cc/tabs/r/radiohead/anyone_can_play_guitar_tab_ver_2.html ]
------------------------------------------------------------------------------
------------------------------------------------------------------------------
---------------5--5--2--------7----7------------------------------------------
---5--5--2-----5--5--2--------7----7----5-----2-------7-----------------------
---5--5--2-----3--2--0--------5----3----5-----2-------7-----------------------
---3--2--0------------------------------3-----0-------5-----------------------
                                                                              

------------------------------------------------------------------------------
------------------------------------------------------------------------------
---7-----------5---5--2----7---------------7----------------------------------
---7---5-5--2--5---5--2----7-----5-----2---7----------------------------------
---5---5-5--2--3---2--0----5-----5-----2---5----------------------------------
-------3-2--0--------------------3-----0--------------------------------------
        INTERLUDE                                                             

------------------------------------------------------------------------------
------------------------------------------------------------------------------
---5-----------------------------------------------------------9--7--5--4-----
---5--------------------------------------------------------------------------
---3--------------------------------------------------------------------------
--------3--2--0-----0--2--3--5--6---5--3--6--5--3--6--5--3--0-----------------
                                                                              

------------------------------------------------------0-----------------------
------------------------------------------------------0-----------------------
------------------------------------------------------0-----------------------
---5---7---8------7---5---8-----7---5---8----7---5----2-----------------------
------------------------------------------------------2-----------------------
---3---5---6------5---3---6-----5---3---6----5---3----0-----------------------
                                                                              

------------------------------------------------------------------------------
------------------------------------------------------------------------------
-11--12--14--12-11------9-----11-------12------14-----16--17--19--------------
------------------------------------------------------------------------------
--9--10--12--10--9------7------9-------10------12-----14--15--17--------------
------------------------------------------------------------------------------
                                                                              

------------------------------------------------------------------------------
------------------------------------------------------------------------------
--19---19--19----17-19-19--17-19-19--17-19-19--17\16\14\12\11\9\7\5\4\--------
------------------------------------------------------------------------------
--17---17--17-----------------------------------------------------------------
------------------------------------------------------------------------------
                                                                              

Comments