Radiohead - Analyse Chords & Tabs

 

Analyse Chords & Tabs

Radiohead Chords & Tabs

Version: 1 Type: Tab 0 ratings
1 star 2 stars 3 stars 4 stars 5 stars
comments

Analyse Tab

Tab by, Tete de Radio
Capo @ 5

D-----5------5--------------------------------|
A-------5------5------------------------------|
G---0------------0----------------------------|
D---------------------------------------------|
A---------------------------------------------|
D-5--------5----------------------------------|

[ Tab from: http://www.guitartabs.cc/tabs/r/radiohead/analyse_tab.html ]
D-5--5--5--5--6--6--6---------------------------------|
A-5--3--2--3--3--5--6---------------------------------|
G-0--0--0--0--0--0--0---------------------------------|
D-----------------------------------------------------|
A-------------------3---------------------------------|
D-5--5--5--3--1--0------------------------------------|

 X2 X2 X2 X2 X2 X2 X4

This is the bulk of the tune.
Comments