Radiohead - A Punchup At A Wedding Chords & Tabs

 

A Punchup At A Wedding Chords & Tabs

Radiohead Chords & Tabs

Version: 1 Type: Bass Tab 0 ratings
1 star 2 stars 3 stars 4 stars 5 stars
comments

A Punchup At A Wedding Bass Tab

   
-----------------------------------------------------------------------------
			     A PUNCHUP AT A WEDDING - Radiohead
-----------------------------------------------------------------------------

Tabbed By : Ambulanceo
e-mail: xradiovideox@yahoo.com

Tuning: standard

[ Tab from: http://www.guitartabs.cc/tabs/r/radiohead/a_punchup_at_a_wedding_btab.html ]
G|----9~-7--------------|
D|--------9-------------|
A|-7-------10-----------|
E|----------------------|  repeats

G|-7-h9-7-9~-7---------|
D|------------9--------|
A|-------------10------|
E|---------------------|  plays during the verses

| /  slide up
| \  slide down
| h  hammer-on
| p  pull-off
| ~  vibrato
| +  harmonic
| x  Mute note


Fairly simple bass part, but if you give it a lot of feeling it's a lot of fun to play 
improvise.
Comments