Radiohead - 2 2 5 Chords & Tabs

 

2 2 5 Chords & Tabs

Radiohead Chords & Tabs

Version: 2 Type: Tab 0 ratings
1 star 2 stars 3 stars 4 stars 5 stars
comments

2 2 5 Tab

   
tabbed by snowball (based on tabs of Jorge Hernandez and Richard Bromley)
drop D tuning

at "Are you such a dreamer..."
------------------------------
    Fm                         Fm7sus2
e[---------------------------------------------------------]
B[---------------------------------------------------------]
G[--1--------------1------------0------------0-------------]   repeat a few times
D[-----3---------3----3-------3----3-------3----3-------3--]
A[---------3---3------------3------------3------------3----]
D[-----------3------------3------------2------------2------]

  F                            F#dim     Gm           Fm           C
e[----------------------------------------------------------------------------------------------------]
B[----------------------------------------------------------------------------------------------------]
G[2------------2------------2------------3------------1------------0------------0------------0--------]
D[---3-------3----3-------3----4-------4----5-------5----3-------3----2-------2----2-------2---------2]
A[---------3------------3------------3------------5------------3------------3------------3---------3--]
D[-------1------------1------------2------------5------------3------------2------------2---------2----]

repeat the whole thing again


at "It's the devil's way now"
-----------------------------
fast picking:

B[--9-9-9-9-9--8-8-8-8-8--6-6-6-6-6--8-8-8-8-8-8-8-8-8-8----6-6-6-6\11-11/6-6-6-6\11-11/8-8-8-8--]


at "Because..."
---------------
the fast picking riff is played over these cords:
[ Tab from: http://www.guitartabs.cc/tabs/r/radiohead/2_2_5_tab_ver_2.html ]
    Fm    Fm7sus2 C#   C        Eb   C#   C
e[-------------------------------------------------]
B[---9--9---8--8--6-6--5-5-5-5--8-8--6-6--5-5-5-5--]
G[--10-10--10-10--6-6--5-5-5-5--8-8--6-6--5-5-5-5--]
D[--10-10--10-10--6-6--5-5-5-5--8-8--6-6--5-5-5-5--]
A[---8--8---7--7--4-4--3-3-3-3--6-6--4-4--3-3-3-3--]
D[-------------------------------------------------]


at "I try to sing along"
------------------------

e[---x-x-x--x-x---x-x-x--x-x---x-x-x--x-x---x-x-x--x-x--]
B[---6-6-6--8-8---6-6-6--8-8---6-6-6--6-6---6-6-6--6-6--]
G[---x-x-x--x-x---x-x-x--x-x---x-x-x--x-x---x-x-x--x-x--] 2x
D[---6-6-6--8-8---6-6-6--8-8---5-5-5--6-6---5-5-5--6-6--]
A[---6-6-6--8-8---6-6-6--8-8---5-5-5--6-6---5-5-5--6-6--]
D[------------------------------------------------------]

e[---x--x--x--x-x-x----x--x--x--x-x-x---x-x-x--x-x---x-x-x--x-x--]
B[--11-11-11--6-6-6---11-11-11--6-6-6---6-6-6--6-6---6-6-6--6-6--]
G[---x--x--x--x-x-x----x--x--x--x-x-x---x-x-x--x-x---x-x-x--x-x--]  2x
D[--11-11-11--6-6-6---11-11-11--6-6-6---5-5-5--6-6---5-5-5--6-6--]
A[--11-11-11--6-6-6---11-11-11--6-6-6---5-5-5--6-6---5-5-5--6-6--]
D[---------------------------------------------------------------]

then go wild on the 11th fret (during "hail to the thief")
e[---x--x--x--x--x--x--x-x-x--x-x--x-x-x--x-x--x-x-x--x-x--x-x-x--x-x--]
B[--11-11-11-11-11-11--6-6-6--6-6--6-6-6--6-6--6-6-6--6-6--6-6-6--6-6--]
G[---x--x--x--x--x--x--x-x-x--x-x--x-x-x--x-x--x-x-x--x-x--x-x-x--x-x--]
D[--11-11-11-11-11-11--5-5-5--6-6--5-5-5--6-6--5-5-5--6-6--5-5-5--6-6--]
A[--11-11-11-11-11-11--5-5-5--6-6--5-5-5--6-6--5-5-5--6-6--5-5-5--6-6--]
D[---------------------------------------------------------------------]

repeat the 2nd riff once, and go wild during "go and tell the king..."

end with another  e[--x-x-x--x-x--]
                  B[--6-6-6--6-6--]
                  G[--x-x-x--x-x--]
                  D[--5-5-5--6-6--]
                  A[--5-5-5--6-6--]
                  D[--------------]
Comments