Radiohead - 2 2 5 Chords & Tabs

 

2 2 5 Chords & Tabs

Radiohead Chords & Tabs

Version: 1 Type: Bass Tab 0 ratings
1 star 2 stars 3 stars 4 stars 5 stars
comments

2 2 5 Bass Tab

Part One "Paying Attention"
G|----------------|----------------|----------------|----------------||
D|----------------|----------------|----------------|----------------||
A|--8---8--8---8-8|--7---7--7---7-7|----------------|----------------||
E|----------------|----------------|-/9---9--9---9-9|--8---8--8---8-8||

G|----------------|----------------|----------------|----------------||
D|----------------|----------------|----------------|----------------||
A|----------------|----------------|-------------/11|-------------/11||
E|--8---8--8---8-8|11--11-11--11-11|-9--9--9--9-9---|-9--9--9--9-9---||
[ Tab from: http://www.guitartabs.cc/tabs/r/radiohead/2_2_5_btab.html ]
G|-------------------|-----------------|----------------|----------------||
D|-------------------|-10-10--8-8h10-10|----------------|----------------||
A|-------------------|-----------------|8-8--8-8-8-8/10|7-7---7--7---7-7||
E|-8-8---8--8--8-8-8-|8----------------|----------------|----------------||

G|----------------|----------------|-----------------|----------------||
D|----------------|----------------|---8/10-10--10-10|----------------||
A|----------------|----------------|-----------------|----------------||
E|-/9---9--9---9-9|--8---8--8---8-8|8-8--------------|11--11-11--11-11||

G|----------------|----------------|----------------|----------------||
D|----------------|----------------|----------------|----------------||
A|-------------/11|-------------/11|----------------|----------------||
E|-9--9--9--9-9---|-9--9--9--9-9---|--8---8--8---8-8|--8---8--8---8-8||
Comments