Radiohead - 15 Step Chords & Tabs

 

15 Step Chords & Tabs

Radiohead Chords & Tabs

Version: 3 Type: Tab 0 ratings
1 star 2 stars 3 stars 4 stars 5 stars
comments

15 Step Tab

15 Step-Radiohead
From the album "In Rainbows"
Tab by FenderStrat0593

Standard Tuning (EADGBE)

After Drum intro:
Verse
(You used to be alright....)

e|-------|--------|---------|---------|
B|--4-2-4|-9--9-9-|-11-11-11|-9--9-9--|
G|--4-4-4|-10-8-10|-11-10-11|-10-8-10-|
D|-------|--------|---------|---------|  x4
A|-------|--------|---------|---------|
E|-4-----|9-------|11-------|9--------|

Chorus:
(One By One.....)

e|--7----|--9-----|--11-----|--9-----|
B|---9p7-|---11p9-|---12p11-|--11p9--|
G|-8----8|-10---10|-11----11|-10---10|
D|-------|--------|---------|--------|  x4
A|-------|--------|---------|--------|
E|-------|--------|---------|--------|
[ Tab from: http://www.guitartabs.cc/tabs/r/radiohead/15_step_tab_ver_3.html ]
After chorus: Arpeggio C#m and Cm chords, and then

e|-------|-----|
B|--4-2-0|0-0-0|
G|--4-4-4|3-4-3|
D|-------|-----| x2
A|-------|-----|
E|-4-----|-----|

Verse 2
(You used to be alright)


e|-------|--------|---------|--------|
B|--4-2-4|-9--9-9-|-11-11-11|-9--9-9-|
G|--4-4-4|-10-8-10|-11-10-11|-10-8-10|
D|-------|--------|---------|--------|  x2
A|-------|--------|---------|--------|
E|-4-----|9-------|11-------|9-------|

(Thanks for whatever...)

e|--7----|--9-----|--11-----|--9-----|
B|---9p7-|---11p9-|---12p11-|--11p9--|
G|-8----8|-10---10|-11----11|-10---10|
D|-------|--------|---------|--------|  x2
A|-------|--------|---------|--------|
E|-------|--------|---------|--------|

Afterwards, you can just play a G#m, C#m, D#m, C#m progression.
Comments