Radiohead - 15 Step Chords & Tabs

 

15 Step Chords & Tabs

Radiohead Chords & Tabs

Version: 2 Type: Tab 0 ratings
1 star 2 stars 3 stars 4 stars 5 stars
comments

15 Step Tab

Song: 15 Step
Artist: Radiohead
Album: In Rainbows
Tabbed by: MgoBlueNo1

This awesome album by Radiohead is currently not in stores yet but you can download it 
free at inrainbows.com. You get to choose the price so just say 0. It also asks for your 
information. Just put in fake stuff so they donít send shit to your house.

Iím pretty sure this is correct soÖya


Guitar Intro:
[ Tab from: http://www.guitartabs.cc/tabs/r/radiohead/15_step_tab_ver_2.html ]
E|----------------------------------------------------------|
B|--7--7--9--9-11--9---9--7---------------------------------|
G|--8--6/10--8/11--10--10--8--------------------------------|	x3
D|----------------------------------------------------------|
A|----------------------------------------------------------|
E|----------------------------------------------------------|

After that, thereís this thing.

E|----------------------------------------------------------|
B|--7--7/-9---------------11--9---9---7---------------------|
G|--8--6/10---------------11--10--10--8---------------------|	x1
D|-------------11h13/15-------------------------------------|
A|----------------------------------------------------------|
E|----------------------------------------------------------|

Then you play the intro once

There you go. Iím currently tabbing the rest of the song as you read this, so sit on 
ass, grab a bowl of popcorn, and wait.
Comments