Radiohead - 15 Step Chords & Tabs

 

15 Step Chords & Tabs

Radiohead Chords & Tabs

Version: 4 Type: Bass Tab 0 ratings
1 star 2 stars 3 stars 4 stars 5 stars
comments

15 Step Bass Tab

Band: Radiohead
Song: 15 step
Album: In Rainbows
Tabbed by: choke383
Normal Tuning: GDAE


0.42
G|------------6~------(6)-8~------(8)-6~------(6)-|
D|6~------(6)-------------------------------------|
A|------------------------------------------------|
E|------------------------------------------------|x5


1:15
G|---------------------------------|
D|---------------------------------|
A|2-------4-------6-------4--------|
E|--4-224---4-224---4-224---4-224--|x4



1:39
G|6----------65-----------5---------------------------------------------------------------|
D|------------------------------------6-----66-----6-66-66---6-66-66---6-66-66---6-66-66--|
A|----------------------------------------------------------------------------------------|
E|----------------------------------------------------------------------------------------|


1.58
G|------------6~------(6)-8~------(8)-6~------(6)-|
D|6~------(6)-------------------------------------|
A|------------------------------------------------|
E|------------------------------------------------|

G|------------6~----------------------------------|
D|6~------------------------6644------------------|
A|------------------------66----664---------------|
E|---------------------------------74-4--0-2------|

G|------------6~----------------------------------|
D|6~----------------------------------------------|
A|------------------------6~----------4~----------|
E|------------------------------------------------|
[ Tab from: http://www.guitartabs.cc/tabs/r/radiohead/15_step_btab_ver_4.html ]
G|------------6~----------------------------------|
D|6~----------------------------------------------|
A|------------------------6~----------4~----------|
E|-----------------------------------------------4|


2.40
G|-------------------------------------------------------------------------|
D|-------------------------------------------------------------------------|
A|-------------------------------------------------------------------------|
E|7--4--02474-7--4--47474-7--4--02474-7--4--7-474-7--4--47474-7--4--02474--|

G|------------------------------------------|
D|--6644-----------------6644---------------|
A|66----664------------66----664------------|
E|---------74-4--02474----------74-4--4747--|

G|--------------------------------------------------------------------------|
D|--------------------------------------------------------------------------|
A|----------------------4---------------------------------------------------|
E|7--4--47474-7--4--4747--7--4--47474--7--4--02474-7--4--47474-7--4--47474--|

G|-------------------------------------------|
D|--6644-----------------6644----------------|
A|66----664------------66----664-------------|
E|---------74-4--47474----------74-4--02474--|

G|-------------------------------------------------------------------------|
D|-------------------------------------------------------------------------|
A|-------------------------------------------------------------------------|
E|7--4--02474-7774--47474-7--4--47474-7774--02474-7--4--47474-7--4--02474--|


G|-------------------------|
D|-------------------------|
A|-------------------------|
E|7--4--02474-7--4--02474--|



Any comments, questions or jokes send to style444@hotmail.com
Comments