Radiohead - 15 Step Chords & Tabs

 

15 Step Chords & Tabs

Radiohead Chords & Tabs

Version: 1 Type: Bass Tab 0 ratings
1 star 2 stars 3 stars 4 stars 5 stars
comments

15 Step Bass Tab

     
(^=accent)


  Im pretty sure this is right for the most part...if not, ill make a 2nd version...

1:13
G|----------|----------|----------|----------|
D|----------|----------|----------|----------|
A|2--0----2-|4--2--004-|6--4----6-|3--1----3-|   x4
E|------33--|----------|------77--|------44--|
  ^          ^          ^          ^          

2:07
G|------------------|
D|------------------|
A|12-99-------------|
E|-----1212995---6h7|

2:13 and 2:19
G|-----------------|
D|-----------------|
A|-----------------|
E|12-------10----10|

2:38
G|-----------|-----------|-------------|------------|-----------|
D|-----------|-----------|-------------|------------|-----------|
A|2--0---0-2-|2--0---2-2-|2--0---0h1h2-|2--0--2---2-|2--0---2-2-|
E|------3-3--|------3-3--|------3------|---------3--|------3-3--|
[ Tab from: http://www.guitartabs.cc/tabs/r/radiohead/15_step_btab.html ]
|-----------|--------------|------------------------|---------------------|
|-----------|--------------|------------------------|---------------------|
|2--0---2-2-|2--0---0h1h2p0|00121299----------------|00121299-------------|
|------3-3--|------3-------|--------1212995--755h7p5|--------1212995--5656|

|-----------|------------|-----------|--------------|-----------|
|-----------|------------|-----------|--------------|-----------|
|2--0---2-2-|2--0---2-2h3|2--0---2-2-|2--0---0h1h2p1|2--0---2-2-|
|--------3--|------3-3---|------3-3--|------3-------|--------3--|

|------------|------------------------|-----------------------|
|------------|------------------------|-----------------------|
|2--0---2-2h3|00121299----------------|00121299---------------|
|--------3---|--------1212995--755h7p5|--------1212995--7657p5|

|-----------|     |-----------|-----------|
|-----------|     |-----------|-----------|
|2--0---2-2-|x4   |2--0---2-2-|2--0--2--2-|
|------3-3--|     |--------3--|-------33-3|

3:23
|------------|------------|
|------------|------------|
|2--0--20020-|2--0--20020-|
|------------|------------|

End.
Comments