Racoon - Love You More Chords & Tabs

 

Love You More Chords & Tabs

Racoon Chords & Tabs

Version: 2 Type: Tab 0 ratings
1 star 2 stars 3 stars 4 stars 5 stars
comments

Love You More Tab

   
RACOON LOVE YOU MORE ver 2.

Made by Marquepide

Put all stings one down 

E will become EB
A will become AB
etc

INTRO 

  B                                A
E[------0-------0------0--------|------------------------------|
B[--3-------3-------3-------3---|3\2-----------2---------------|
G[----2-------2-------2---------|------2--------------2--------|
D[------------------------------|----2-----2-------2-------2---|
A[2-------2-------2-----------2-|0-----------0-------0-------0-|
E[------------------------------|------------------------------|

B                                A
E[------0-------0------0----2---|------------------------------|
B[--3-------3-------3-----------|3\2-----------0---------------|
G[----2-------2-------2---------|------2--------------2--------|
D[------------------------------|----2-----2-------2-------2---|
A[2-------2-------2-----------2-|0-----------0-------0-------0-|
E[------------------------------|------------------------------|

Verse 1

  B                                A
E[------0-------0------0--------|------------------------------|
B[--3-------3-------3-------3---|3\2-----------2---------------|
G[----2-------2-------2---------|------2--------------2--------|
D[------------------------------|----2-----2-------2-------2---|
A[2-------2-------2-----------2-|0-----------0-------0-------0-|
E[------------------------------|------------------------------|

B                                A
E[------0-------0------0----2---|------------------------------|
B[--3-------3-------3-----------|3\2---------------------------|
G[----2-------2-------2---------|------2-------4------2--------|
D[------------------------------|----2-----2-------2-------2---|
A[2-------2-------2-----------2-|0-----------0-------0-------0-|
E[------------------------------|------------------------------|

B                                A
E[------0-------0------0--------|------------------------------|
B[--3-------3-------3-------3---|3\2-----------2---------------|
G[----2-------2-------2---------|------2--------------2--------|
D[------------------------------|----2-----2-------2-------2---|
A[2-------2-------2-----------2-|0-----------0-------0-------0-|
E[------------------------------|------------------------------|


B                                A
E[------0-------0------0----2---|----------------------5-------|
B[--3-------3-------3-----------|3\2-----------5---------------|
G[----2-------2-------2---------|------2-----------------------|
D[------------------------------|----2-----2-------2-------2---|
A[2-------2-------2-----------2-|0-----------0-------0-------0-|
E[------------------------------|------------------------------|













chorus:

  E                              A
E[----3-------3----3/2----------|------------------------------|
B[----3-------3----------2------|3\2-----------2---------------|
G[---------------------2-----2--|------2--------------2--------|
D[-----------------0-----------0|----2-----2-------2-------2---|
A[------------------------------|0-----------0-------0-------0-|
E[0-------0-----0---------------|------------------------------|

E                              A
E[----3-------3----3/2----------|------------------------5-----|
B[----3-------3----------2------|2-------3-------5-------------|
G[---------------------2-----2--|----2-------2-------2---------|
D[-----------------0-----------0|------------------------------|
A[------------------------------|0---------------------------0-|
E[0-------0-----0---------------|------------------------------|

E                              A
E[----3-------3----3/2----------|------------------------------|
B[----3-------3----------2------|3\2-----------3/2-------------|
G[---------------------2-----2--|------2-------------2---------|
D[-----------------0-----------0|----2-----2-------2-------2---|
A[------------------------------|0-----------0---------------0-|
E[0-------0-----0---------------|------------------------------|
[ Tab from: http://www.guitartabs.cc/tabs/r/racoon/love_you_more_tab_ver_2.html ]
E                              A
E[-----------------------0------|------------------------------|
B[----3-------3----3/2-----3----|3\2---------2-----------------|
G[----2-------2--------2-----2--|------2-----------------------|
D[-----------------0-----------0|----2-----2-------------------|
A[------------------------------|0---------------------------0-|
E[3-------3-----3---------------|------------------------------|
 
Verse 2

  B                                A
E[------0-------0------0--------|------------------------------|
B[--3-------3-------3-------3---|3\2-----------2---------------|
G[----2-------2-------2---------|------2--------------2--------|
D[------------------------------|----2-----2-------2-------2---|
A[2-------2-------2-----------2-|0-----------0-------0-------0-|
E[------------------------------|------------------------------|

B                                A
E[------0-------0------0----2---|------------------------------|
B[--3-------3-------3-----------|3\2-------------------2-------|
G[----2-------2-------2---------|------2-------4---------------|
D[------------------------------|----2-----2-------2-------2---|
A[2-------2-------2-----------2-|0-----------0-------0-------0-|
E[------------------------------|------------------------------|

B                                A
E[------0-------0------0--------|------------------------------|
B[--3-------3-------3-------3---|3\2-----------2---------------|
G[----2-------2-------2---------|------2--------------2--------|
D[------------------------------|----2-----2-------2-------2---|
A[2-------2-------2-----------2-|0-----------0-------0-------0-|
E[------------------------------|------------------------------|


B                                A
E[------0-------0------0----2---|----------------------5-------|
B[--3-------3-------3-----------|3\2-----------5---------------|
G[----2-------2-------2---------|------2-----------------------|
D[------------------------------|----2-----2-------2-------2---|
A[2-------2-------2-----------2-|0-----------0-------0-------0-|
E[------------------------------|------------------------------|

End harmonica solo

At the and of the harmonica solo play just before the chorus 

B                                A
E[------0-------0------0--------|------------------------------|
B[--3-------3-------3-------3---|3\2-----------2---------------|
G[----2-------2-------2---------|------2--------------2--------|
D[------------------------------|----2-----2-------2-------2---|
A[2-------2-------2-----------2-|0-----------0-------0-------0-|
E[------------------------------|------------------------------|


B                                A
E[------0-------0------0----2---|----------------------5-------|
B[--3-------3-------3-----------|3\2-----------5---------------|
G[----2-------2-------2---------|------2-----------------------|
D[------------------------------|----2-----2-------2-------2---|
A[2-------2-------2-----------2-|0-----------0-------0-------0-|
E[------------------------------|------------------------------|













By the part when he sings "and every day I miss you more and more
and more and more and more" the last line of the chorus will be

E                              A
E[----3-------3----3/2----------|------------------------------|
B[----3-------3----------2------|2-------3-------3-------5-----|
G[---------------------2-----2--|----2-------2-------2---------|
D[-----------------0-----------0|------------------------------|
A[------------------------------|0---------------------------0-|
E[0-------0-----0---------------|------------------------------|



the end of the song last lines 

  B                                A
E[------0-------0------0--------|------------------------------|
B[--3-------3-------3-------3---|3\2-----------2---------------|
G[----2-------2-------2---------|------2--------------2--------|
D[------------------------------|----2-----2-------2-------2---|
A[2-------2-------2-----------2-|0-----------0-------0-------0-|
E[------------------------------|------------------------------|

B                                A
E[------0-------0------0----2---|------------------------------|
B[--3-------3-------3-----------|3\2---------------------------|
G[----2-------2-------2---------|------------------------------|
D[------------------------------|------------------------------|
A[2-------2-------2-----------2-|0-----------------------------|
E[------------------------------|------------------------------|

The song has to be played in this order

Intro
Verse 1
Chorus
Verse 2
Chorus
Intro (harmonica solo) 
Intro (harmonica solo)
End harmonica solo
Chorus (remember that the last line is different (see note)
Chorus
End of the song last lines
Comments