Racoon - Laugh About It Chords & Tabs

 

Laugh About It Chords & Tabs

Racoon Chords & Tabs

Version: 1 Type: Tab 0 ratings
1 star 2 stars 3 stars 4 stars 5 stars
comments

Laugh About It Tab

   
-------------------------------------------------------------------------------
			   LAUGH ABOUT IT - Racoon
-------------------------------------------------------------------------------
Tabbed by: Alessandro Lo-Presti ( Agilo ) and Ed van der Molen ( Deus_Ed )
Email: not_published@unknown.com / meel_naar_ed@hotmail.com

Tuning: standard tuning.


Notes: This is the second part of the song, the high-tones you hear
       while the main chords (F#, B, C#) are being played.
       There are two other variations which we were unable to
       figure out but we thought we'd want to publish this already.
[ Tab from: http://www.guitartabs.cc/tabs/r/racoon/laugh_about_it_tab.html ]
       Thanks for Ed for helping me tab it and thank to Vlora for
       sending me this song. :-)



e|------------------------------6---7p6-9----6---7p6-6--|
B|------0--0---2--2---4--4-6--7---7--------7---7--------|
G|--3--------1------3----4-6----------------------------|
D|----4-------------------------------------------------|
A|------------------------------------------------------|
E|------------------------------------------------------|



| /  slide up
| \  slide down
| h  hammer-on
| p  pull-off
| ~  vibrato
| +  harmonic
| x  Mute note
===============================================================================
Comments