Rachel Stevens - Sweet Dreams My La Ex Chords & Tabs

 

Sweet Dreams My La Ex Chords & Tabs

Rachel Stevens Chords & Tabs

Version: 1 Type: Chords 0 ratings
1 star 2 stars 3 stars 4 stars 5 stars
comments

Sweet Dreams My La Ex Chords

   
Rachel Stevens (ex S-Club 7) - Sweet Dreams My L.A. Ex 

I'm kinda embarrassed to put this up, as she's definitely not the kind of artist that I
would normally listen to (I certainly didn't pay any attention to S-Club 7!), but they
keep playing this song at the gym I go to and I need to exorcise it from my mind! I must
admit, though, it's not too bad considering...

Note: I may very well have done this in the wrong key, as I've tabbed this from memory,
and without a copy of the song to play along it's difficult to be sure of the correct pitch! 


Intro:

  A5               D5               D5      Bb5      A5
e|----------------|----------------|----------------|----------------|
B|----------------|----------------|----------------|----------------|
G|----------------|7--7----7--7----|7--7------------|----------------|
D|7--7----7--7----|7--7----7--7----|7--7----8--8----|7--7----7--7----|
A|7--7----7--7----|5--5----5--5----|5--5----8--8----|7--7----7--7----|
E|5--5----5--5----|----------------|--------6--6----|5--5----5--5----|


And then under the verses and chorus it's:

  A5               D5               D5      Bb5      A5
e|----------------|----------------|----------------|----------------|
B|----------------|----------------|----------------|----------------|
G|----------------|7--7x---7--7x---|7--7x-----------|----------------|
D|7--7x---7--7x---|7--7x---7--7x---|7--7x---8--8x---|7--7x---7--7x---|
A|7--7x---7--7x---|5--5x---5--5x---|5--5x---8--8x---|7--7x---7--7x---|
E|5--5x---5--5x---|----------------|--------6--6x---|5--5x---5--5x---|
[ Tab from: http://www.guitartabs.cc/tabs/r/rachel_stevens/sweet_dreams_my_la_ex_crd.html ]
The 'x' is actually in the drum part, but it seems to work if you also play it on the
guitar, either to damp the strings, or just to repeat the revious chord.

---


[A5] Hey, hang your [D5]red gloves up
'Cause there's [D5]nothing [Bb5]left to prove [A5]now
[A5]Hey, hang your [D5]red gloves up
Baby, [D5] no-one [Bb5]cares but [A5]you
[A5] What planet [D5]are you from
Ac[D5]cuse me of [Bb5]things I never [A5]done
[A5]Listen to you [D5]carrying on
[D5]Cheating a[Bb5]nother [A5]love song 

If [A5]I were in [D5]your shoes
I'd [D5]whisper be[Bb5]fore I [A5]shout
[A5]Can't you stop playing that [D5]record again
[D5]Find somebody [Bb5]else to [A5]talk about
If [A5]I were in [D5]your shoes
I'd [D5]worry [Bb5]of the ef[A5]fects
[A5]You've had your say but now its [D5]my turn
[D5]Sweet dreams my [Bb5]L.A. [A5]Ex

We've had it on full steam
'Til the light comes back to you now
Hey, is it all it seems
Is it all you dreamed and more
What planet are you from
Accuse me of things that I never done
Listen to you carrying on
Cheating another love song 

If I were in your shoes
I'd whisper before I shout
Can't you stop playing that record again
Find somebody else to talk about
If I were in your shoes
I'd worry of the effects
You've had your say but now its my turn
Sweet dreams my L.A. Ex

Does it make you feel the man
Pointing the finger because you can
I spell it loud and clear
Baby, that tongues not welcome around here

You turned the city round (L.A. Ex)
Do you think I give a damn (L.A. Ex)
Do you think that I'm the fairer (S-E-X)
Sweet dreams my L.A. Ex

If I were in your shoes
I'd whisper before I shout
Can't you stop playing that record again
Find somebody else to talk about
If I were in your shoes
I'd worry of the effects
You've had your say but now its my turn
Sweet dreams my L.A. Ex
Comments