Rachel Stamp - Witches Of Angelholm Chords & Tabs

 

Witches Of Angelholm Chords & Tabs

Rachel Stamp Chords & Tabs

Version: 1 Type: Bass Tab 0 ratings
1 star 2 stars 3 stars 4 stars 5 stars
comments

Witches Of Angelholm Bass Tab

   
Witches Of Angelholm - Rachel Stamp from the album Oceans Of Venus

*Drop D Tuning*

* = let ring
! = play LOUD

ORDER:

Intro
Verse
Bridge
Verse
Bridge
Chorus
Verse
Bridge
Verse
Bridge
Chorus
Chorus
Bridge 2
Bridge 3
Chorus
Chorus
Bridge 4
Bridge 2
Outro


Intro:

Guitar plays riff twice then drums and bass come in:

G ----------------------------------|
D ----------------------------------|
A ----------------------------------|
D -7-7-7-7-7-7-7-7--7-7-7-7-7-7-7-7-|

Verse (Same as Intro):

G ----------------------------------|
D ----------------------------------|
A ----------------------------------|
D -7-7-7-7-7-7-7-7--7-7-7-7-7-7-7-7-|

Hey little girl...

Bridge:

G ---------------------------------|
D ---------------------------------|
A ---------------------------------|
D -7*-----------7-9-11-13-16-15*---|

What did I ever do to you...

Chorus:

I'm not sure if there is actually any bass cos the guitar's playing way louder but if there
is any bass it's probably this:
[ Tab from: http://www.guitartabs.cc/tabs/r/rachel_stamp/witches_of_angelholm_btab.html ]
G ---------------------------------|
D ---------------------------------|
A ---------------------------------|
D -7-7-7-7-3-3-3-3-7-7-7-7-9-9-9-9-|

and then bass goes:

G ---------------------------------|
D ---------------------------------|
A ---------------------------------|
D -7*-----3*-----7*-----5*---------|

Bridge 2:

G ------------------------------------------|
D ------------------------------------------|
A ------------------------------------------|
D -5-7--5-7--5-7--5-7----5-7--5-7--5-7--5-7-|

repeat loadsa times and continue through keyboard solo

then Bridge 3:

G -----------------------------------------|
D -----------------------------------------|
A -----------------------------------------|
D -5*------------7-7-7-7-7-7---------------|


Then during what-sounds-like-an-organ:

Bridge 4:

G ---------------------------------|
D ---------------------------------|
A ---------------------------------|
D -7*-----9*-----3*-----5*---------|

Outro:

G -----------------------------------------|
D -----------------------------------------|
A -----------------------------------------|
D -5-7--5-7--5-7--5-7----7!----------------|

it's one of the best songs on the album so i hope u enjoy this tab ;)

tabbed by *mikey*

comments/corrections - jetblacksupersonic@hotmail.com
Comments