Rachel Stamp - Spank Chords & Tabs

 

Spank Chords & Tabs

Rachel Stamp Chords & Tabs

Version: 1 Type: Bass Tab 0 ratings
1 star 2 stars 3 stars 4 stars 5 stars
comments

Spank Bass Tab

Rachel Stamp - Spank from the Hymns for Strange Children album

*my first tab* but i'm pretty sure its ok
[ Tab from: http://www.guitartabs.cc/tabs/r/rachel_stamp/spank_btab.html ]
G --------------------------------------------------------|
D --------------------------------------------------------|
A --2-2-----0-2-2-----3-2-2-----0-2-2-----3-2-2-----0-2-2-|
E ------2-2-------2-2-------2-2-------2-2-------2-2-------|

repeat once

then during guitar bit:

G --------------------------------------------------------|
D --------------------------------------------------------|
A -----------------1-1-1-1-1-1-1-1------------------------|
E -0-0-0-0-0-0-0-0----------------------------------------|

have fun

mikey
Comments