Rachel Stamp - My Sweet Rose Chords & Tabs

 

My Sweet Rose Chords & Tabs

Rachel Stamp Chords & Tabs

Version: 1 Type: Chords 0 ratings
1 star 2 stars 3 stars 4 stars 5 stars
comments

My Sweet Rose Chords

   
rachel stamp
my sweet rose

intro- repeat through verse a untill 'you dont need me...'

e|---------------------------------
b|---------------------------------
g|----2------4---2---2------4s2----
d|--2------2-----------2-----------
a|0------0-----0---0------0-----0--
e|---------------------------------

verse a

asus2				f
You've got lips of cherry chrome 
asus2				f
I've got a heart that's made of stone 
d		f		asus2
I've been thinking, you should leave me 
asus2	f
my sweet rose 
asus2	f
my sweet rose
f		asus2
you don't need me as much as 
g			a5	riff a x2
you need your soul
[ Tab from: http://www.guitartabs.cc/tabs/r/rachel_stamp/my_sweet_rose_crd.html ]
riff a
e|---------------------------
b|---------------------------
g|---------------------------
d|3-3-3-3-3-3-3-3-3-3-3-3-3--
a|3-3-3-3-3-3-3-3-3-3-3-3-3--
e|1-1-1-1-1-1-0-1-1-0-1-1-0--

verse b

a5			f5
We are the ones that fall apart 
a5						f5
Love can save your life but it just breaks my heart 
d5
And though I try I 
f5	b5		a5
can't destroy what I am

corus

a5	riff a
My Sweet Rose 
a5	riff a
My Sweet Rose 
d5			c5
You don't need me as much as 
b5		a5	riff a
you need your soul

bridge

a5	riff a x3	d5	c5	b5	a5

interlude

asus2				f
You've got lips of cherry chrome 
asus2				f
I've got a heart that's made of stone 

a5	riff a
my sweet rose	x 5
d5			c5
you don't need me as much as 
b5		
you need your soul

end on asus2

jaque xxx
ego_loaded_and_swallowed@hotmail.com
Comments