Rachel Stamp - Heroine Chords & Tabs

 

Heroine Chords & Tabs

Rachel Stamp Chords & Tabs

Version: 1 Type: Tab 0 ratings
1 star 2 stars 3 stars 4 stars 5 stars
comments

Heroine Tab

   
rachel stamp
heroine

the introduction goes straight into the verse so just play through 

verse a- play through 

e|-------------------------------------
b|-------------------------------------
g|-----9---11------------10---9--------
d|---9---9----9---9---10----9---9-0----
a|-7------------7---7---------------7--
e|-------------------------------------

maybe if i could i would shoot you up inside my vein

feel you rushing round inside me
and maybe if I could I would let you loose inside my mind
you take me some place that they will never ever find me

chorus-
[ Tab from: http://www.guitartabs.cc/tabs/r/rachel_stamp/heroine_tab.html ]
e|---------------------------------
b|----------8------------------8---
g|-----8------9-----------8--------
d|---9---9------7-------9----9-----
a|-7---------------7--7------------
e|---------------------------------

if you see my heroine tell her that she made me feel bad
cos every time im with her i feel so small
my heroine, tell her that she made me so mad
Cos I need her so bad
When shes not there

verse b- repeat verse a 

maybe if i could i would get rid of all of your tears 
rip up all of your pain 
& maybe if i could you would tell me how i feel inside 
kiss you in the pouring rain

after chorus two play this piece & after piano solo play through again four times

e|-1---0---0---
b|-3---0---1---
g|-3---0---2---
d|-2---2---2---
a|-1---2---0---
e|-1-----------
   f   em  am 

When shes not there

jaque xxx
email falling_to_pieces@hotmail.com
Comments