Racer X - Gone Too Far Chords & Tabs

 

Gone Too Far Chords & Tabs

Racer X Chords & Tabs

Version: 1 Type: Tab 1 rating
1 star 2 stars 3 stars 4 stars 5 stars
comments

Gone Too Far Tab

Hi folks, this is one song I really like from Racer X, it's not 100% right for sure, any corrections
will be REALLY welcome!
mail me at skiller@imagelink.com.br
cya


e|-------------------------------|------------------------------------------
B|-------------------------------|------------------------------------------
G|-4-------4-------4-------0---2-|---------------------3--------------------
D|-4-------4-------4-----4-----2-|-----------------2-5---5-4-2--------------
A|---2-2-2---2-2-2-----5-------0-|-2-5-2-0-----1-4-------------5-4-2--------
E|-------------------3-------0---|---------0-2-----------------------5-3-2--

e|---------------------------------|-------------------
B|---------------------------------|-------------------
G|-3-4-------4-------4-------------|-7-9---7---------7-
D|-3-4-------4-------4-------------|-7-9-7-7-7-9-4-7-7-
A|-----2-2-2---2-2-2---2-5-2-0-----|-5-7-7-5-7-9-4-7-5-
E|-----------------------------0-2-|-----5---5-7-2-5---

e|----------------------------------------------------------------------
B|----------------------------------------------------------------------
G|-4-------4-------4-------0-----------------------3--------------------
D|-4-------4-------4-----4---2-----------------2-5---5-4-2--------------
A|---2-2-2---2-2-2-----5-----2-2-5-2-0-----1-4-------------5-4-2--------
E|-------------------3-------0---------0-2-----------------------5-3-2--

e|----------------------------------|
B|----------------------------------|
G|-3-4-------4-------4-------0---2--|
D|-3-4-------4-------4-----4-----2--|
A|-----2-2-2---2-2-2-----5-------0--|
E|--------------------3-------0-----|


e|-----------------------|----------------------
B|----2-3-3-2----2-3-3-2-|---2---3---2---3---2--
G|-2--2-2-2-2-2--2-2-2-2-|-4-4-4-4-4-4-4-4-4-4--
D|-2----------2----------|-4-4-4-4-4-4-4-4-4-4--
A|-0----------0----------|-2-2-2-2-2-2-2-2-2-2--
E|-----------------------|----------------------

                    ~~          ~~            
e|-------|---------------------------------------------------------
B|-------|-17-14-15----17-14-15----17-14-15-17b-19-17-15-----------
G|-------|----------14----------12-----------------------18-16-14--
D|-2-4-5-|---------------------------------------------------------
A|-2-4-5-|---------------------------------------------------------
E|-0-2-3-|---------------------------------------------------------

                                                whammy
e|-------------------------|------------------------
B|----2-3-3-2----2-3-3-----|---2---3---2---3---2-3\-
G|-2--2-2-2-2-2--2-2-2-2-3-|-4-4-4-4-4-4-4-4-4-4-2\-
D|-2----------2--------2-3-|-4-4-4-4-4-4-4-4-4-4----
A|-0----------0--------0-1-|-2-2-2-2-2-2-2-2-2-2----
E|-------------------------|------------------------

e|------------------------|----------------------
B|----2-3-3-2----2-3-3-2--|---2---3--------------
G|-2--2-2-2-2-2--2-2-2-2--|-4-4-4-4-------0---2--
D|-2----------2-----------|-4-4-4-4-----4-----2--
A|-0----------0-----------|-2-2-2-2---5-------0--
E|------------------------|---------3-------0----

                    ~~          ~~            
e|-------|---------------------------------------
B|-------|-17-14-15----17-14-15----17-14-15-17b--
G|-------|----------14----------12---------------
D|-2-4-5-|---------------------------------------
A|-2-4-5-|---------------------------------------
[ Tab from: http://www.guitartabs.cc/tabs/r/racer_x/gone_too_far_tab.html ]
e|----------------------------|-----------------------------
B|-------------------14-16-17-|-------------------17-19-21--
G|----------------12----------|-------------18-20-----------
D|-------11-13-14-------------|----------18-----------------
A|----11----------------------|-16-18-19--------------------
E|-12-------------------------|-----------------------------

e|----------17----------------17-19-21-|-23-21-23-19---------------------------
B|-17-19-21----21-19-17-19-21----------|-------------22-21-19-------------------
G|-------------------------------------|----------------------21-20-18----------
e|-------------------------------------|-------------------------------21-19-18-
A|-------------------------------------|--------------------------------------
E|-------------------------------------|--------------------------------------

e|--------------------|----------14----------------14-16-17--
B|----------12--------|-14-16-17----17-16-14-16-17-----------
G|-20-----------14----|--------------------------------------
D|----13 14-----------|--------------------------------------
A|--------------------|--------------------------------------
E|--------------------|--------------------------------------

-19-17-16----------------------------|-------------------------
----------19-17-16-------------------|--------------------12b--
-------------------18-16-14----------|-16--------11/13\11------
----------------------------18-16-14-|----9-9/11---------------
-------------------------------------|-------------------------
-------------------------------------|-------------------------

Solo

e|----------------------------------------------------|--------------------------------------
B|-16-17-16-14-17-16-17-16-14-------------------------|--------------------------------------
G|----------------------------14-16-18-16-14----------|-13-14-16-14-13-----------------------
D|-------------------------------------------18-16-14-|----------------16-14-13----------14--
A|----------------------------------------------------|-------------------------16-14-12-----
E|----------------------------------------------------|--------------------------------------

e|----------------16-19-16--------------------------
B|-----------16-19--------19-16---------------------
G|---------16-------------------16------------------
D|-------18------------------------18---------------
A|--16-19-----------------------------19-16---------
E|19----------------------------------------19-19--- ...
                                                        T            T  T  T  
e|-------------------------------------------|------------------------------------------------------
B|-17-16-14-17-16-14-------------------------|-14-16-17-19-17-116-14-19-21-19-17-16-14-16-17-19/26--
G|-------------------14-13-11-14-13-11-13-14-|------------------------------------------------------
D|-------------------------------------------|------------------------------------------------------
A|-------------------------------------------|------------------------------------------------------
E|-------------------------------------------|------------------------------------------------------

                                                
e|------------------------------------------|-22b-22b-23-24-------------------22b----
B|-16-17-16-14------------------------------|---------------17-19-21-22-19-17--------
G|-------------16-14------------------------|----------------------------------------
D|-------------------13b-14b-13-11-13-14-13-|----------------------------------------
A|------------------------------------------|----------------------------------------
E|------------------------------------------|----------------------------------------

Well I'm tired when I get time I get the rest of the song

















Comments