Ra - Swimming Upstream Chords & Tabs

 

Swimming Upstream Chords & Tabs

Ra Chords & Tabs

Version: 1 Type: Tab 0 ratings
1 star 2 stars 3 stars 4 stars 5 stars
comments

Swimming Upstream Tab

-----------------------------------------------------------------------------
			     Swimming Upstream - Ra
-----------------------------------------------------------------------------
Tabbed by: Jordan B.


Tuning: Standard-EADGBE
[ Tab from: http://www.guitartabs.cc/tabs/r/ra/swimming_upstream_tab.html ]
e|---------------------------------------------------------------------------|
B|---------------------------------------------------------------------------|
G|-------------5------------5------------------3-------------2---------------|
D|---------3------3-----3-------3----------3------3--------------3-----------|
A|-----5-------------0-------------------------------------------------------|
E|------------------------------------3-----------------3------------3-------|


e|-----------------------------------------|
B|-----------------------------------------|
G|-------------5------------5----------5---|
D|---------3------3-----3-------3------3---|
A|-----5-------------0-----------------5---|
E|-------------------------------------3---|
Comments