Ra - On My Side Chords & Tabs

 

On My Side Chords & Tabs

Ra Chords & Tabs

Version: 1 Type: Tab

On My Side Tab

e|-----------3-----------------2----------|
B|--------2-----2------------2---2--------|
G|-----2------------2-----2--------2------|
D|--2------------------0------------------|
A|----------------------------------------|
E|----------------------------------------|   X2
[ Tab from: http://www.guitartabs.cc/tabs/r/ra/on_my_side_tab.html ]
e|--------------------0-------------------|
B|--------3-------------0-----------------|
G|------2----2------------0---------------|
D|----2--------2---2----------------------|
A|--2------------0------------------------|
E|----------------------------------------|

THATS ALL I KNOW FOR RIGHT NOW.