Ra - Do You Call My Name Chords & Tabs

 

Do You Call My Name Chords & Tabs

Ra Chords & Tabs

Version: 8 Type: Tab 0 ratings
1 star 2 stars 3 stars 4 stars 5 stars
comments

Do You Call My Name Tab

This is my first tab, I have wanted to tab others but this time I just had too.
You have to tune down to 'D' if you want it to sound right. So here it is, have
fun...

/=Slide, Pm=Palm Mute, P=Pull

(FIRST PART)
E-----------------------------------------------------------------------  
B-----------------------------------------------------------------------
G-----------------------------------------------------------------------
D-3--2--6--------3--2--6--7--9------3--2--6--3--2--1--2--3--2--3--2--6--
A-3--2--6--------3--2--6--7--9------3--2--6--3--2--1--2--3--2--3--2--6--
D-3--2--6--------3--2--6--7--9------3--2--6--3--2--1--2--3--2--3--2--6--
  -P-  ^(I slide) -P-                -P-      -P-         -P-   -P-

^^^Repeat this four times, on the last one go like this:

E-----------------------
B-----------------------
G-----------------------
D--1--2--3--5--8--------
A--1--2--3--5--8--------
D--1--2--3--5--8--------

The second part goes as follows:

(SECOND PART)
E-----------------------------------------------------------------
B-----------------------------------------------------------------
G-----------------------------------------------------------------
D--0-0--12-12/11-11---0-0-0-0-11---0-0--12-12/11-11---0-0-0-0-11--
A--0-0----------------0-0-0-0------0-0----------------0-0-0-0-----
D--0-0--10-10/9--9----0-0-0-0-9----0-0--10-10/9--9----0-0-0-0-9---
   -P-                  -P-        -P-                  -P- 

E-----------------------------------------------------------------
B-----------------------------------------------------------------
G-----------------------------------------------------------------
D--0-0--5-5/4-4---0-0-0-0-5---0-0--5-5/4-4---0-0-0-0-10-----------
A--0-0------------0-0-0-0-----0-0------------0-0-0-0--------------
D--0-0--3-3/2-2---0-0-0-0-3---0-0--3-3/2-2---0-0-0-0-8------------
   -P-              -P-       -P-              -P-

Repeat twice
[ Tab from: http://www.guitartabs.cc/tabs/r/ra/do_you_call_my_name_tab_ver_8.html ]
(THIRD PART)
E-----------------------------------------------------------------------------
B-----------------------------------------------------------------------------
G-----------------------------------------------------------------------------
D--3/2--2--2--2--2--5/2--2--2--2/8--------------------------------------------
A--3/2--2--2--2--2--5/2--2--2--2/8--------------------------------------------
E--3/2--2--2--2--2--5/2--2--2--2/8--------------------------------------------

In Between chord play mute, so it doesn't ring out. Play this four times and as
you end the second time go up two frets.

(FOURTH PART)
E-----------------------------------------------------------------
B-----------------------------------------------------------------
G-----------------------------------------------------------------
D--10-10-10-10------10-10-10-10------9-9-9-9----2-2-2-2---5----------
A--10-10-10-10------10-10-10-10------9-9-9-9----2-2-2-2---5----------
D--10-10-10-10------10-10-10-10------9-9-9-9----2-2-2-2---5----------
               -P-              -P-         -P-

Play this four times, but on the second and fourth time mute the last chord and
play it about eight times.

Go to the second part and play.

Let bass play the third part twice them come in and join him.

Now go to the fourth part. 

E-------------------------------------------------------------------
B-------------------------------------------------------------------
G-------------------------------------------------------------------
D--5--8-------------------------------------------------------------
A--5--8-------------------------------------------------------------
D--5--8-------------------------------------------------------------

Now go back to the first part.

Now go to the fourth part.

Now go to the second part.
 
That's it, its pretty easy so good luck, I know i skipped out on a few things
like the end a little bit and the back notes but it still sounds great. If you
have any questions or comments email me at superduperskaterguy@hotmail.com this
was my first so also tell me what you think, did I do ok? Alright thanks this is
StArBlAzInG signing off, later.
Comments