Ra - Do You Call My Name Chords & Tabs

 

Do You Call My Name Chords & Tabs

Ra Chords & Tabs

Version: 7 Type: Tab 0 ratings
1 star 2 stars 3 stars 4 stars 5 stars
comments

Do You Call My Name Tab

e|---------------------------------------------------------------------------|
B|---------------------------------------------------------------------------|
G|---------12-12/11-11------------11---------12-12/11-11-----------11--------|
D|---0-0-----------------0-0-0-0-------0-0----------------0-0-0-0------------|
A|---0-0---10-10/-9-9----0-0-0-0---9---0-0---10-12/-9-9---0-0-0-0---9--------|
E|---0-0-----------------0-0-0-0-------0-0----------------0-0-0-0------------|

e|---------------------------------------------------------------------------|
B|---------------------------------------------------------------------------|
G|---------5-5/4-4-------------4---------5-5/4-4------------11---------------|
D|---0-0-------------0-0-0-0-------0-0-------------0-0-0-0-------------------|
A|---0-0---3-3/2-2---0-0-0-0---2---0-0---3-3/2-2---0-0-0-0---9---------------|
E|---0-0-------------0-0-0-0-------0-0-------------0-0-0-0-------------------|
[ Tab from: http://www.guitartabs.cc/tabs/r/ra/do_you_call_my_name_tab_ver_7.html ]
Comments