Ra - Do You Call My Name Chords & Tabs

 

Do You Call My Name Chords & Tabs

Ra Chords & Tabs

Version: 6 Type: Tab 0 ratings
1 star 2 stars 3 stars 4 stars 5 stars
comments

Do You Call My Name Tab

Artist:Ra
Album:Acapella
Song:Do u call my name
Tuning:C G C F A# D# ( last high strings arent used at all)
Key:^=choke
p.m...|=palm mute


the part that is here comes into the song is at 1:12 sec after
he says "Kill me with a beat"

D#-----------------------------------------------------|
A#-----------------------------------------------------|
F------7^-7^-6^-6^---------6-----7^-7^-6^-6^---------6-|
C--0-0-------------0-0-0-0---0-0-------------0-0-0-0---|
G--0-0-------------0-0-0-0---0-0-------------0-0-0-0---|
C--0-0-------------0-0-0-0---0-0-------------0-0-0-0---|
p.m...|           |.......| |...|           |.......|
[ Tab from: http://www.guitartabs.cc/tabs/r/ra/do_you_call_my_name_tab_ver_6.html ]
D#-----------------------------------------------------|
A#-----------------------------------------------------|
F------------------------------------------------------|
C--0-0-7^-7^-6^-6^-0-0-0-0-6-0-0-7^-7^-6^-6^-0-0-0-0-6-|
G--0-0-------------0-0-0-0---0-0-------------0-0-0-0---|
C--0-0-------------0-0-0-0---0-0-------------0-0-0-0---|
p.m...|           |.......| |...|           |.......|

these parts are played mainly throughout the songs chorus also
Now I havnt seen any tabs for this song anywhere so take wat u can get
an if u dontlike it, o well e-mail me with any questions or any other
parts of the song at lilbigtyma247@yahoo.com thanx alot-corbin
Comments