Ra - Do You Call My Name Chords & Tabs

 

Do You Call My Name Chords & Tabs

Ra Chords & Tabs

Version: 4 Type: Tab 0 ratings
1 star 2 stars 3 stars 4 stars 5 stars
comments

Do You Call My Name Tab

This song is in drop D.


e|------------------------------------------]
b|------------------------------------------]
g|------------------------------------------]
d|------------------------------------------]
a|-3-2-6--3-2-6-7-8---3-2-6--3-2-3-4-5------]
D|-3-2-6--3-2-6-7-8---3-2-6--3-2-3-4-5------](repeat four times)
[ Tab from: http://www.guitartabs.cc/tabs/r/ra/do_you_call_my_name_tab_ver_4.html ]
e|------------------------]
b|------8-8-7-7---------7-]
g|------------------------]
d|------5-5-4-4---------4-]
a|-0-0----------0-0-0-0---]
D|-0-0----------0-0-0-0---](play twice)

e|-------------------------------
b|------13-13-12-12-----------12-
g|-------------------------------
d|------10-10-9--9------------9--
a|-0-0---------------0-0-0-0-----
D|-0-0---------------0-0-0-0-----(play twice)

And there is the intro for ya.
Comments