Ra - Do You Call My Name Chords & Tabs

 

Do You Call My Name Chords & Tabs

Ra Chords & Tabs

Version: 3 Type: Tab 0 ratings
1 star 2 stars 3 stars 4 stars 5 stars
comments

Do You Call My Name Tab

Intro pt.2
(note: I think there may be a de-tuned gutiar or a 7-string used to fatten the sound when finishing the measure 

with the B to C but a distorted bass should cover it fine) 

legend
p---pull off
\---slide down

Play 4X
E -----------------------------------------------------
B -----------------------------------------------------
G -----------------------------------------------------
D --------------------------------------4-5---------(this B to C is an octave higher than in the recording)
A----------------6-7-9------------------2-3---------
E --1-0--4--1-0--4-5-7----1-0-4-1-0---------1-0---
     p       p             p     p         p    


The end of the 4th measure is played into the pre-verse\chorus like so.....
Guitar 1
E--------------------------------------------
B--------------------------------------------
G--------------------------------------------  
D--------------4--5-------------------------
A--------------2--3---3-5----------8------------
E--1-0-4-1-0----------1-3----------6-------------
    P     P     

Guitar 2
E------------------------3----------5--------
B--------------------------3----------3------
G----------------------------0----------3---- (let ring)
D---------------------------------------------
A---------------------------------------------
E---------------------------------------------

...Kill me with a beat....               


Pre-verse\chorus riff

Guitar 1   Played 8x
[ Tab from: http://www.guitartabs.cc/tabs/r/ra/do_you_call_my_name_tab_ver_3.html ]
E------------------------------------------------------------------------------------------------------------
B------------------------------------------------------------------------------------------------------------
G------------------------------------------------------------------------------------------------------------
D--2-2--------2-2-2-2-2----2-2--------2-2-2-2-2----2-2-------------2-2-2-2-2----2-2--------------2-2-2-2-2---
A--2-2--------2-2-2-2-2----2-2--------2-2-2-2-2----2-2-------------2-2-2-2-2----2-2--------------2-2-2-2-2---
E--0-0--------0-0-0-0-0----0-0--------0-0-0-0-0----0-0-------------0-0-0-0-0----0-0--------------0-0-0-0-0---


Guitar 2 (uses wah and chorus, possibly light flanger)
(Played with Guitar 1)
E-----3-3-2-2-----------------3-3-2-2------------------8--8-\-7--7------------------8--8-\-7--7--------------
B------------------------------------------------------------------------------------------------------------
G------------------------------------------------------------------------------------------------------------
D-----5-5-4-4-----------------5-5-4-4----------------- 10-10\-9--9------------------10-10\-9--9--------------
A------------------------------------------------------------------------------------------------------------
E------------------------------------------------------------------------------------------------------------   

                                                                      
Comments