Ra - Do You Call My Name Chords & Tabs

 

Do You Call My Name Chords & Tabs

Ra Chords & Tabs

Version: 11 Type: Tab 0 ratings
1 star 2 stars 3 stars 4 stars 5 stars
comments

Do You Call My Name Tab

#-----------------------------------------------------------------------------#
#-- File created with Instab - http://www.pconline.com/~smcarey/instab.html --#
#-----------------------------------------------------------------------------#
Author/Artist: Ra
Title: Do You Call My Name
Album: From One
Transcribed by: Andrew Hitchcock
This is a great song and it is also my first tab    
This tab is 99% right   the only part i'm missing is the guitar in the
background.  The whole song is there for you.  You do not have to backtrack
during anypart of my tab.

The song is played in Standard Drop-D Tuning

-|---------------------------------------------------------------------|------
-|---------------------------------------------------------------------|------
-|------1-----1/2/4-----1---------------1-----1/2/4-----1--------------|------
-|--3p2---2h3-------3p2---2h3-----3-3p2---2h3-------3p2---2h3-----3----|------
-|----------------------------2-3-----------------------------2-3------|------
-|---------------------------------------------------------------------|------
       this is not the whole into... it starts 20 sec. into the song          

-|------------------------------------------------------------|---------------
-|------------------------------------------------------------|---------------
-|------1-----1/2/4-----1---------------1-----1/2/4-----1-----|---------------
-|--3p2---2h3-------3p2---2h3-----3-3p2---2h3-------3p2---2h3-|---------------
-|----------------------------2-3-----------------------------|---------------
-|------------------------------------------------------------|---------------
                                                                              

-|----------------------------------------------------------------------------
-|----------------------------------------------------------------------------
-|----------------------------------------------------------------------------
-|----------------------------------------------------------------------------
-|--3p2--6--3p2--6/7/8--3p2--6--3p2--3/4-3p2h3p2------------------------------
-|--3p2--6--3p2--6/7/8--3p2--6--3p2--3/4-3p2h3p2------------------------------
    |_______play this the 1st and 3rd times____|                              

-|-----------------------------------------|----------------------------------
-|-----------------------------------------|----------------------------------
-|-----------------------------------------|----------------------------------
-|-----------------------------------------|--2---3---------------------------
-|--3p2--6--3p2--6/7/8--3p2--6--3p2--3/4/5-|--2---3---------------------------
-|--3p2--6--3p2--6/7/8--3p2--6--3p2--3/4/5-|--2---3---------------------------
    |__play this the 2nd and 4th tiems___|   |___let it ring out____|         

-|-----------------------------------|-----------------------------|----------
-|----8-8-7-7------7-----------------|----13-13-12-12-----12-------|---13-----
-|----x-x-x-x------x-----------------|----x--x--x--x------x--------|---x------
-|----5-5-4-4------4------x2---------|----10-10-9--9------9-----x2-|---9------
-|-00---------0000-------------------|-00------------0000----------|----------
-|-00---------0000-------------------|-00------------0000----------|----------
   |___________________________play whole thing TWICE_____|then this---^^^^   

-|--------------------------------------------------------------|-------------
-|--------------------------------------------------------------|-------------
-|--------------------------------------------------------------|-------------
-|--------------------------------------------------------------|-------------
-|-3p2-2--2--2--2--5p2-2--2--2/7--3p2-2--2--2--2--5p2-2--2--2p0-|-------------
-|-3p2-2--2--2--2--5p2-2--2--2/7--3p2-2--2--2--2--5p2-2--2--2p0-|-------------
     --There is a lot of right hand brake muting (stopping sound with hand)   
[ Tab from: http://www.guitartabs.cc/tabs/r/ra/do_you_call_my_name_tab_ver_11.html ]
-|--------------------------|----------------------|--------------------------
-|--------------------------|----------------------|--------------------------
-|--------------------------|----------------------|--------------------------
-|--------------------------|----------------------|--------------------------
-|-10101010-9999--7777-2222/|/10101010-9999---2222-|--------------------------
-|-10101010-9999--7777-2222/|/10101010-9999---2222-|--------------------------
   ^Tens^_____________________^Tens^_________________ play the whole part x2  

-|-----------------------|--------------------------|-------------------------
-|----8-8-7-7------7-----|----13-13-12-12-----12----|---13--------------------
-|----x-x-x-x------x-----|----x--x--x--x------x-----|---x---------------------
-|----5-5-4-4------4--x2-|----10-10-9--9------9--x2-|---10--------------------
-|-00---------0000-------|-00------------0000-------|-------------------------
-|-00---------0000-------|-00------------0000-------|-------------------------
   |_______Play the whole thing TWICE_________|         ^then play this^      

-|------------------------------------------------------------|---------------
-|------------------------------------------------------------|---------------
-|------------------------------------------------------------|---------------
-|------------------------------------------------------------|---------------
-|-/7\2-2--2--2--5p2-2--2--2/7--3p2-2--2--2--2--5p2-2--2--2p0-|---------------
-|-/7\2-2--2--2--5p2-2--2--2/7--3p2-2--2--2--2--5p2-2--2--2p0-|---------------
   there is a part with no guitar then this is played                         

-|--------------------------|----------------------|--------------------------
-|--------------------------|----------------------|--------------------------
-|--------------------------|----------------------|--------------------------
-|--------------------------|----------------------|--------------------------
-|-10101010-9999--7777-2222/|/10101010-9999---2222-|-/7-----------------------
-|-10101010-9999--7777-2222/|/10101010-9999---2222-|-/7-----------------------
   ^Tens^______play whole thing TWICE____________|   then                     

-|-----------------------------------------------|----------------------------
-|-----------------------------------------------|----------------------------
-|-----------------------------------------------|----------------------------
-|-----------------------------------------------|----------------------------
-|-3p2--6--3p2--6/7/8--3p2--6--3p2--3/4--3p2h3p2-|----------------------------
-|-3p2--6--3p2--6/7/8--3p2--6--3p2--3/4--3p2h3p2-|----------------------------
      play this the 1st and 3rd time                                          

-|----------------------------------------|-----------------------------------
-|----------------------------------------|-----------------------------------
-|----------------------------------------|-----------------------------------
-|----------------------------------------|-----------------------------------
-|-3p2--6--3p2--6/7/8--3p2--6--3p2--3/4/5/|/7/9/10----------------------------
-|-3p2--6--3p2--6/7/8--3p2--6--3p2--3/4/5/|/7/9/10----------------------------
       play this the 2nd and 3rd time       gets heavier                      

-|--------------------------|----------------------|--------------------------
-|--------------------------|----------------------|--------------------------
-|--------------------------|----------------------|--------------------------
-|--------------------------|----------------------|--------------------------
-|-10101010-9999--7777-2222/|/10101010-9999---2222-|--------------------------
-|-10101010-9999--7777-2222/|/10101010-9999---2222-|--------------------------
   ^tens^____play whole thing Twice______________|                            

-|------------------------|---------------------------|----------|------------
-|----8-8-7-7------7------|----13-13-12-12------12----|----13----|------------
-|----x-x-x-x------x------|----x--x--x--x-------x-----|----x-----|------------
-|----5-5-4-4------4---x2-|----10-10-9--9-------9--x2-|----10----|--22--------
-|-00---------0000--------|-00-------------0000-------|----------|--22--------
-|-00---------0000--------|-00-------------0000-------|----------|--22--------
   |________________play whole thing x4_________|     (let ring out ^^)
Comments