Ra - Do You Call My Name Chords & Tabs

 

Do You Call My Name Chords & Tabs

Ra Chords & Tabs

Version: 10 Type: Tab 0 ratings
1 star 2 stars 3 stars 4 stars 5 stars
comments

Do You Call My Name Tab

-------------------------------------------------------------------------------
			     Do You Call My Name - Ra
-------------------------------------------------------------------------------

Tabbed by:Polo
This is my first tab so I hope you guys enjoy it. I'm only missing the part after
the second verse, but it still sounds good though. Very simple and fun song to play...Buh bye!
Email:HeavyM3talRocker@yahoo.com

| /  slide up
| \  slide down
| x  palm mute

Tuning:Standard

Intro:clean
E|--3\2--6----3\2--6----7----9----:--3\2--6----3\2--1----2----3----|
B|--3\2--6----3\2--6----7----9----:--3\2--6----3\2--1----2----3----|
G|--------------------------------:--------------------------------|
D|--------------------------------:--------------------------------|
A|--------------------------------:--------------------------------|
E|--------------------------------:--------------------------------|
Repeat this...for the last time you repeat the intro, the last note has only one
count. So quickly switch to the next part...

w/Distortion
E|--------------------------------:--------------------------------|
B|--------------------------------:--------------------------------|
G|--------------------------------:--------------------------------|
D|--3\2--6----3\2--6----7----9----:--3\2--6----3\2--1----2----3----|
A|--3\2--6----3\2--6----7----9----:--3\2--6----3\2--1----2----3----|
E|--3\2--6----3\2--6----7----9----:--3\2--6----3\2--1----2----3----|
Then repeat...

Clean sound:
E|------------|
B|--2----3----|
G|--2----3----|
D|--2----3----|
A|--2----3----|
E|--2----3----|

w/Distortion
E|--------------------------------|
B|--------------------------------|
G|------12-12\11--11---------11---|
D|--0-0-x--x------x--0-0-0-0-x----|
A|--0-0-10-10\9---9--0-0-0-0-9----|
E|--0-0--------------0-0-0-0------|        
Repeat...              

E|-----------------------------:------------------------------|
B|-----------------------------:------------------------------|
G|------5-5\4--4----------4----:------5-5\4--4----------8-----|
D|--0-0-x-x----x--0-0-0-0-x----:--0-0-x-x----x--0-0-0-0-x-----|
A|--0-0-3-3\2--2--0-0-0-0-2----:--0-0-3-3\2--2--0-0-0-0-10----|
E|--0-0-----------0-0-0-0------:--0-0-----------0-0-0-0-------|
Rpeat whole part once more...
[ Tab from: http://www.guitartabs.cc/tabs/r/ra/do_you_call_my_name_tab_ver_10.html ]
Verse:w/Distortion
E|----------------------------------------------|
B|----------------------------------------------|
G|----------------------------------------------|
D|--3\2-2x--2x--2x--2x---5\2-2x--2x--2x--2/7----|
A|--3\2-2x--2x--2x--2x---5\2-2x--2x--2x--2/7----|
E|--3\2-2x--2x--2x--2x---5\2-2x--2x--2x--2/7----|
   
E|----------------------------------------------|
B|----------------------------------------------|
G|----------------------------------------------|
D|--3\2-2x--2x--2x--2x---5\2-2x--2x--2x--2-0----|
A|--3\2-2x--2x--2x--2x---5\2-2x--2x--2x--2-0----|
E|--3\2-2x--2x--2x--2x---5\2-2x--2x--2x--2-0----|
Repeat whole verse...

Pre-Chorus:w/Distortion             
E|--------------------------------------:-----------------------------------|
B|--------------------------------------:-----------------------------------|
G|--------------------------------------:-----------------------------------|
D|--10-10-10-10-10x----10-10-10-10-10x--:--9-9-9-9-9x----2-2-2-2x--2-2/7----|
A|--10-10-10-10-10x----10-10-10-10-10x--:--9-9-9-9-9x----2-2-2-2x--2-2/7----|
E|--10-10-10-10-10x----10-10-10-10-10x--:--9-9-9-9-9x----2-2-2-2x--2-2/7----|

E|--------------------------------------:--------------------------------|
B|--------------------------------------:--------------------------------|
G|--------------------------------------:--------------------------------|
D|--10-10-10-10-10x----10-10-10-10-10x--:--9-9-9-9-9x----x-x-x-x--x-x-x--|
A|--10-10-10-10-10x----10-10-10-10-10x--:--9-9-9-9-9x----x-x-x-x--x-x-x--|
E|--10-10-10-10-10x----10-10-10-10-10x--:--9-9-9-9-9x----x-x-x-x--x-x-x--|
Repeat...

Chorus:w/Distortion
E|--------------------------------|
B|--------------------------------|
G|------12-12\11--11---------11---|
D|--0-0-x--x------x--0-0-0-0-x----|
A|--0-0-10-10\9---9--0-0-0-0-9----|
E|--0-0--------------0-0-0-0------|        
Repeat...              

E|-----------------------------:------------------------------|
B|-----------------------------:------------------------------|
G|------5-5\4--4----------4----:------5-5\4--4----------8-----|
D|--0-0-x-x----x--0-0-0-0-x----:--0-0-x-x----x--0-0-0-0-x-----|
A|--0-0-3-3\2--2--0-0-0-0-2----:--0-0-3-3\2--2--0-0-0-0-10----|
E|--0-0-----------0-0-0-0------:--0-0-----------0-0-0-0-------|
Repeat whole chorus over...

Stall for first half of the 2nd verse, then start playing the verse during the
second half of it...you'll get it

Then play pre-chorus, but DON'T go to the chorus after...

Now here's the part where I didn't learn yet so forget it, or you can just learn
it yourself...

Play the heavy intro part twice...the SECOND time you play it do it like this below...
w/Distortion
E|--------------------------------:--------------------------------------|
B|--------------------------------:--------------------------------------|
G|--------------------------------:--------------------------------------|
D|--3\2--6----3\2--6----7----9----:--3\2--6----3\2--1----2----3--5--7-9--|
A|--3\2--6----3\2--6----7----9----:--3\2--6----3\2--1----2----3--5--7-9--|
E|--3\2--6----3\2--6----7----9----:--3\2--6----3\2--1----2----3--5--7-9--|

Then go to pre-chorus twice...

Finally, you play the chorus 4 times....but the LAST time you repeat it, the last
note should be like this...

E|-------|
B|-------|
G|--9----|
D|--x----|
A|--7----|
E|-------|

Well there we go that's most of the song, any comments, questions, or mistakes
just e-mail me...
===============================================================================
Comments