Ra - Do You Call My Name Chords & Tabs

 

Do You Call My Name Chords & Tabs

Ra Chords & Tabs

Version: 1 Type: Tab 1 rating
1 star 2 stars 3 stars 4 stars 5 stars
comments

Do You Call My Name Tab

   
RA-Do You Call My Name
Tabbed By: Shock

Hey this is a Bad Ass song and I noticed no one has tabbed it
out yet so I will do the honors.


little sitar part in the begining
    p         p                p        p
e--1--0--4---1--0--4--5--6---1--0--4---1--0--------------------
B--------------------------------------------1-2-3-------------
G--------------------------------------------------------------
D--------------------------------------------------------------
A--------------------------------------------------------------
E--------------------------------------------------------------

[ Tab from: http://www.guitartabs.cc/tabs/r/ra/do_you_call_my_name_tab.html ]
Riff A:
e--------------------------------------------------------------
B--------------------------------------------------------------
G--------------------------------------------------------------
D------------------------------------------2--3--4-------------
A------------------------------------------2--3--4-------------
E--1--0--4---1--0--4-5-6---1--0--4---1--0--0--1--2-------------
    p         p             p         p     


Riff B: 
e----------------------------------------------------------------
B----------------------------------------------------------------
G----------12-12-11-11---------11------12-12-11-11-----------11--
D----------------------------------------------------------------
A----------------------------------------------------------------
E--0-0-0---------------0-0-0-0----0-0-0-------------0-0-0-0------


e--------------------------------------------------------------
B--------------------------------------------------------------
G---------5-5-4-4-----------4--------5-5-4-4----------4--------
D--------------------------------------------------------------
A--------------------------------------------------------------
E--0-0-0-----------0-0-0-0-----0-0-0----------0-0-0-0----------


Note: Sorry I don't have the Verse, Pre-Chourus, or the Acoustic 
part but I will try to get them to you soon. Riff A is also the 
Bridge riff and Riff B is also the Chourus. 

Rock And Roll!!!                      
Comments