Ra - Do You Call My Name 1(intro) Chords & Tabs

 

Do You Call My Name 1(intro) Chords & Tabs

Ra Chords & Tabs

Version: 1 Type: Tab 0 ratings
1 star 2 stars 3 stars 4 stars 5 stars
comments

Do You Call My Name 1(intro) Tab

This should be the correct intro to this song

Guitar I (Plays throughout intro)

e-------0----0-    
b-----0---0----
g---4----------
d-2--------2---
a--------------
e--------------

[ Tab from: http://www.guitartabs.cc/tabs/r/ra/do_you_call_my_name_1intro_tab.html ]
Guitar II
   p       p            p      p         p
e-1-0--4--1-0-4-5-7----1-0-4--1-0-----1-1-0--
b---------------------------------0-1--------
d--------------------------------------------
g--------------------------------------------
a--------------------------------------------
e--------------------------------------------
Comments