R Kelly - The Worlds Greatest Chords & Tabs

 

The Worlds Greatest Chords & Tabs

R Kelly Chords & Tabs

Version: 1 Type: Tab 0 ratings
1 star 2 stars 3 stars 4 stars 5 stars
comments

The Worlds Greatest Tab

this is only the intro but it is used in the verse aswell, (i think) and although it is
a piano riff it still sounds wicked on a guitar, this is only my second tab so please
rate it to let me if i should just stop submitting them.

tabbed by: william broughton, (new zealander) "REPRESENT"

                    cheers.

artist: r kelly
song: the world's greatest
tuning: standard
[ Tab from: http://www.guitartabs.cc/tabs/r/r_kelly/the_worlds_greatest_tab.html ]
e|------------------------------------------------------|
B|------------------------------------------------------|
G|-----------12--------------12-------------------------|       
D|------------------------------------------------------|
A|-------13-(13)---------13-(13)------------------------|
E|---11-----(11)-----11-----(11)----------10------------|


e|------------------------------------------------------|
B|------------------------------------------------------|
G|----------10-------------10---------------------------|
D|------------------------------------------------------|
A|------10-(10)--------10-(10)--------------------------|
E|---8-----(8)------8-----(8)-------------10------------|

                                                              REPEAT

***********************************NOTE*****************************

the numbers in the brackets are optional and don't have to be played, you can also ad
hammer ons, pull offs and slides if you want, so really this is just the basic riff you
can work off,

                             thanks for viewing
Comments