R Kelly - Ignition Chords & Tabs

 

Ignition Chords & Tabs

R Kelly Chords & Tabs

Version: 1 Type: Bass Tab 0 ratings
1 star 2 stars 3 stars 4 stars 5 stars
comments

Ignition Bass Tab

   
Artist: R.Kelly
Song  : Ignition (Remix)
Tabber: James Pucyk (pucyk_james@hotmail.com)

This is one grooving bassline and is the heart of the song.
The chords used are posted above the actual bassline. If 
you want to follow the lyrics, take a look at the chords
for the first chord progression on Ultimate-guitar.com, 
that person figured the same chords as I did and I am very
confident they are correct.
[ Tab from: http://www.guitartabs.cc/tabs/r/r_kelly/ignition_btab.html ]
Verse and Choruses
   G#      C#  C  A#m	   Eb
G|---------------------------------|
D|---------------------------------|
A|----------4--3--1--11-1--6--66-6-|
E|-4--1/3-4------------------------|

Bridge
(Doot-doot/beep-beep part)
G|----------------------------86------86-----|
D|---------------------------8--86---8--86---|
A|----------4--3--1--11-1---6-----8-6-----86-|
E|-4--1/3-4----------------------------------|

FIN
Comments