R3set - Nacer Chords & Tabs

 

Nacer Chords & Tabs

R3set Chords & Tabs

Version: 1 Type: Tab 1 rating
1 star 2 stars 3 stars 4 stars 5 stars
comments

Nacer Tab

   
-------------------------------------------------------------------------------
			     NACER - R3SET
-------------------------------------------------------------------------------
Tabbed by: J4Q0 Sangalli
Email: jaqo@r3set.net

Tuning: Drop D

Intro (flanger)
e|---------------------------------------------------------------------------|
B|---------------------------------------------------------------------------|
G|---------------------------------------------------------------------------|
D|---------------------------------------------------------------------------|
A|---5--6--3--5------5--3--6--5--------5--6--3--5------5--3--6--5------+5~ --|
D|-00-00-00-00-000000-00-00-00-00000000-00-00-00-000000-00-00-00-000000------|
palm mute en la 6º cuerda

Verso
e|---------------------------------------------------------------------------|
B|---------------------------------------------------------------8888--------|
G|---------------------------------------------------------------7777--------|
D|---------------------------------------------------------------------------|
A|---5--6--3--5------5--3--6--5------5--6--3--5------5--3--6--5--5555--------|
D|-00-00-00-00-000000-00-00-00-000000-00-00-00-000000-00-00-00-00------------|
palm mute en la 6º cuerda

Pre coro - dist pesada   Pre coro B
e|---------------------|-----------------------------------------------------|
B|---------------------|-----------------------------------------------------|
G|---------------------|--------------------------1/-------------------------|
D|-xx0-01-10-05-53-----|-777777777777-7777777777771/-------------------------|
A|-xx0-01-10-05-53-----|-555555555555-5555555555551/-------------------------|
D|-xx0-01-10-05-53-----|-555555555555-5555555555551/-------------------------|
4 veces               .. .. .. ..  .. .. ......
[ Tab from: http://www.guitartabs.cc/tabs/r/r3set/nacer_tab.html ]
Coro x 2
e|---------------------------------------------------------------------------|
B|---------------------------------------------------------------------------|
G|-11~-11~--------11~-9~--9~---------9~--------------------------------------|
D|--------0--0--0------------0--0--0----9/10---------------------------------|
A|-9~--9~-0--0--0-9~--7~--7~-0--0--0-7~-7/8----------------------------------|
D|-0--0---0--0--0-0---0---0--0--0--0-0--7/8----------------------------------|
         .  .  .          .  .  .

2º Coro x 2
e|---------------------------------------------------------------------------|
B|----------------------------------------20~--------------------------------|
G|-11~-11~--------11~-14~-14~---------14~------------------------------------|
D|--------0--0--0-------------0--0--0-----17~--------------------------------|
A|-9~--9~-0--0--0-9~--12~-12~-0--0--0-12~-15~--------------------------------|
D|-0--0---0--0--0-0---0---0---0--0--0-0---15~--------------------------------|
	 .  .  .          .  .  .


Interludio A x 4 - poca dist	Interludio B x 4 - dist pesada
e|---------------------------|-----------------------------------------------|
B|---------------------------|-----------------------------------------------|
G|---------------------------|-----------------------------------------------|
D|---------------------------|-0-0-11-x0-01-10-------------------------------|
A|---5--6--5--6--5~----------|-0-0-11-x0-01-10-------------------------------|
D|-00-00-00-00-00------------|-0-0-11-x0-01-10-------------------------------|
palm mute en la 6º cuerda      . .


Coro Final x 2
e|-----------------------------------------22~-------------------------------|
B|---------------------------------------------------------------------------|
G|-14~-14~---------11~-17~-17~---------17~-19~-------------------------------|
D|---------0--0--0-------------0--0--0---------------------------------------|
A|-12~-12~-0--0--0-12~-15~-15~-0--0--0-15~-17~-------------------------------|
D|-0---0---0--0--0-0---0---0---0--0--0-0---15~-------------------------------|
	   .  .  .	       .  .  .

Salida - dist pesada	x 3
e|------------------|----------------|---------------------------------------|
B|------------------|----------------|---------------------------------------|
G|------------------|----------------|---------------------------------------|
D|-0-0-11-10-01-10--|-0-10-10-01-10--|-0-10-10-01----------------------------|
A|-0-0-11-10-01-10--|-0-10-10-01-10--|-0-10-10-01----------------------------|
D|-0-0-11-10-01-10--|-0-10-10-01-10--|-0-10-10-01----------------------------|


| /  slide up
| \  slide down
| h  hammer-on
| p  pull-off
| ~  vibrato
| +  harmonic
| x  Mute note
| .  Palm Mute
===============================================================================
Comments