R3set - Humanos Chords & Tabs

 

Humanos Chords & Tabs

R3set Chords & Tabs

Version: 1 Type: Tab 1 rating
1 star 2 stars 3 stars 4 stars 5 stars
comments

Humanos Tab

   
-------------------------------------------------------------------------------
			     HUMANOS - R3SET
-------------------------------------------------------------------------------
Tabbed by: J4Q0 Sangalli
Email: jaqo@r3set.net

Tuning: Drop D

Intro - dist pesada
e|---------------------------------|-----------------------------------------|
B|---------------------------------|-----------------------------------------|
G|---------------------------------|-----------------------------------------|
D|-0-2-3--0-2-3---0-2-3--0-2-3-x2--|-0-0-0--0-0-0--x12\----------------------|
A|-0-2-3--0-2-3---0-2-3--0-2-3-x2--|-0-0-0--0-0-0--x12\----------------------|
D|-0-2-3--0-2-3---0-2-3--0-2-3-x2--|-0-0-0--0-0-0--x12\----------------------|
				     . . .  . . .

Verso A x 2 (silencios marcados)	Verso B x 8
e|--------------------------------|------------------------------------------|
B|--------------------------------|------------------------------------------|
G|--------------------------------|----------------*5~-----------------------|
D|-0-2-3--0-2-3---0-2-3--0-2-3--2-|--0-2-3-x0-2-3----------------------------|
A|-0-2-3--0-2-3---0-2-3--0-2-3--2-|--0-2-3-x0-2-3-x--------------------------|
D|-0-2-3--0-2-3---0-2-3--0-2-3--2-|--0-2-3-x0-2-3-x--------------------------|
   . . .  . . .   . . .  . . .	.

Pre Coro x 4
e|---------------------------------------------------------------------------|
B|---------------------------------------------------------------------------|
G|---------------------------------------------------------------------------|
D|---------------------------------------------------------------------------|
A|-----44---5554445~---------------------------------------------------------|
D|-0022--022-----------------------------------------------------------------|
palm mute en todo


Coro x 2
e|-------------------------------------------------|------------|------------|
B|-------------------------------------------------|------------|------------|
G|-------------------------------------------------|--77--77-7~-|------------|
D|-0-0-7--0--x7-----3-3-5---0-0-7--0--x7-----3-3-5-|--66--66-6~-|-5-5---3-3--|
A|-0-0-5--0--x5-3h5-3-3-3---0-0-5--0--x5-3h5-3-3-3-|--55--55-5~-|-3-3---1-1--|
D|-0-0----0--x------3-3-3---0-0----0--x------3-3-3-|-0--00--0---|-3-3---1-1--|
   . .              . .     . .              . .     .  ..  .     . .   . .
[ Tab from: http://www.guitartabs.cc/tabs/r/r3set/humanos_tab.html ]
Interludio x 2 - dist suave
e|---------------------------------------------------------------------------|
B|---------------------------------------------------------------------------|
G|---------------------------------------------------------------------------|
D|---------------------------------------------------------------------------|
A|------------------------1-1-----------------------------1-1----------------|
D|-0-0-0-x1-1-x3-3-0-0-0-x----x3-3-0-0-0-x1-1-x3-3-0-0-0-x----x1-1-----------|
palm mute en todo

x 2 - dist pesada
e|---------------------------------------------------------------------------|
B|---------------------------------------------------------------------------|
G|-----------------3-----------------------3---------------------------------|
D|-0---1---3---0---3---3---0---1---3---0---3---1-----------------------------|
A|-0---1---3---0---1---3---0---1---3---0---1---1-----------------------------|
D|-0---1---3---0-------3---0---1---3---0-------1-----------------------------|


x 4		  x 4
e|--------------|-------------|----------------------------------------------|
B|--------------|-------------|----------------------------------------------|
G|--------------|-------------|----------------------------------------------|
D|-0---1---456~-|-0x--1x--456-|----------------------------------------------|
A|-0---1---456~-|-0x--1x--456-|----------------------------------------------|
D|-0---1---456~-|-0x--1x--456-|----------------------------------------------|
		  ..  ..

Ultimo Coro x 2
e|-------------------------------------------------|------------|------------|
B|-------------------------------------------------|------------|------------|
G|-------------------------------------------------|--77--77-7~-|------------|
D|-0-0-7--0--x7-----3-3-5---0-0-7--0--x7-----3-3-5-|--66--66-6~-|-0-4-0-4-0-4|
A|-0-0-5--0--x5-3h5-3-3-3---0-0-5--0--x5-3h5-3-3-3-|--55--55-5~-|-0-4-0-4-0-4|
D|-0-0----0--x------3-3-3---0-0----0--x------3-3-3-|-0--00--0---|-0-4-0-4-0-4|
   . .              . .     . .              . .     .  ..  .     . . . . . .

Ultimo Coro x 2 						Salida x 4
e|-------------------------------------------------|----------|----------------|
B|-------------------------------------------------|----------|----------------|
G|-------------------------------------------------|----------|----------------|
D|-0-0-7--0--x7-----3-3-5---0-0-7--0--x7-----3-3-5-|-5-5--3-3-|-0-2-3-x0-2-3-x2|
A|-0-0-5--0--x5-3h5-3-3-3---0-0-5--0--x5-3h5-3-3-3-|-3-3--1-1-|-0-2-3-x0-2-3-x2|
D|-0-0----0--x------3-3-3---0-0----0--x------3-3-3-|-3-3--1-1-|-0-2-3-x0-2-3-x2|
   . .              . .     . .              . .     . .  . .


| /  slide up
| \  slide down
| h  hammer-on
| p  pull-off
| ~  vibrato
| +  harmonic
| *  pinch harmonic
| x  Mute note
===============================================================================
Comments